Guitaretab - guitar tabs
Song name
# A B C D E F G H I J K L M N O P Q R S T U V W X Y Z

Misc Unsigned Bands - Joint - Mami Kawada Shakugan No Shana tab

Title  Joint
Artist  Mami Kawada
Tabbed By - Vesalious
Tuning  Dropped D (DADGBe)

Info ~ This tab is for the vocal part of the song, it is not the actual Lead/Rhythm part 
the song. There are however some Lead/Rhythm parts.
I have tried to give a sense of time by using distance between each note using the 
The more hyphens in between the longer the wait.
1 hyphen would be an eighth note and 2 a quarter note and so on.
These are not exact but an approximate.
If you have any suggestions or corrections please email me at Vesalious@hotmail.com ~
This is my first tab so Im hopin for some sort of feedback =]

e|--------------------------------------------------------------------------|
B|--------------------------------------------------------------------------|
G|--------------------------------------------------------------------------|
D|--------------------------------------------------------------------------|
A|-----------5---------------------5---------------------5------------------|
D|--0--2-2-5----5-7-8-7-5-0--2-2-5----5-7-8-7-5-0--2-2-5---5-7-8-7-5-0------|

e|--------------------------------------------------------------------------|
B|--------------------------------------------------------------------------|
G|--------------------------------------------------------------------------|
D|--------------------------------------------------------------------------|
A|----------5--7--8--7--5--0------------------------------------------------|
D|-2-2-5-2--5--7--8--7--5--0------------------------------------------------|

e|--------------------------------------------------------------------------|
B|--------------------------------------------------------------------------|
G|--------------------------------------------------------------------------|
D|-------------------7-7-7-7--2-2-2-2--------------------5-5-5-5--7-7-7-7---|
A|-2-2-2-2--5-5-5-5--5-5-5-5--0-0-0-0--2-2-2-2--5-5-5-5--3-3-3-3--5-5-5-5---|
D|-2-2-2-2--5-5-5-5--------------------2-2-2-2--5-5-5-5---------------------|

e|--------------------------------------------------------------------------|
B|--------------------------------------------------------------------------|
G|--------------------------------------------------------------------------|
D|-------------------7-7-7-7--2-2-2-2--------------------5-5-5-5--7-7-7-7---|
A|-2-2-2-2--5-5-5-5--5-5-5-5--0-0-0-0--2-2-2-2--5-5-5-5--3-3-3-3--5-5-5-5---|
D|-2-2-2-2--5-5-5-5--------------------2-2-2-2--5-5-5-5---------------------|

e|--------------------------------------------------------------------------|
B|--------------------------------------------------------------------------|
G|-9-9-9-9-9-9-9-9-9-9-9-12-11--9-9-9-9-9-9-9-9-9-9-9-14-12-----------------|
D|--------------------------------------------------------------------------|
A|-7-7-7-7-7-7-7-7-7-7-7-10--9--7-7-7-7-7-7-7-7-7-7-7-12-10-----------------|
D|--------------------------------------------------------------------------|

e|--------------------------------------------------------------------------|
B|--------------------------------------------------------------------------|
G|-9-9-9-9-9-9-9-9-9-9-9-12-11--9-9-9-9-9-9-9-9-9-9-9-14-12-----------------|
D|--------------------------------------------------------------------------|
A|-7-7-7-7-7-7-7-7-7-7-7-10--9--7-7-7-7-7-7-7-7-7-7-7-12-10-----------------|
D|--------------------------------------------------------------------------|

e|--------------------------------------------------------------------------|
B|-----7-8-7----------------------7-8-7-8-9--9-9--8--7----------------------|
G|-7-7-------9-7-7------------7-7-----------------------7-------------------|
D|-----------------10-9-----------------------------------------------------|
A|--------------------------------------------------------------------------|
D|--------------------------------------------------------------------------|

e|--------------------------------------------------------------------------|
B|-----7-8-7----------------------7-8-7-8-10--10-10--8--7-------------------|
G|-7-7-------9-7--7-----------7-7--------------------------7----------------|
D|-----------------10-9-----------------------------------------------------|
A|--------------------------------------------------------------------------|
D|--------------------------------------------------------------------------|

e|--------------------------------------------------------------------------|
B|-----7-8-7----------------------7-8-7-8-9--9-9--8--7----------------------|
G|-7-7-------9-7-7------------7-7-----------------------7-------------------|
D|-----------------10-9-----------------------------------------------------|
A|--------------------------------------------------------------------------|
D|--------------------------------------------------------------------------|

e|--------------------------------------------------------------------------|
B|-----7-8-7----------------------7-8-7-8-10--10-10--12--13-8-10------------|
G|-7-7-------9-7--7-----------7-7-------------------------------------------|
D|-----------------10-9-----------------------------------------------------|
A|--------------------------------------------------------------------------|
D|--------------------------------------------------------------------------|

e|--------------------------------------------------------------------------|
B|-10-8-7-8-7----10-8-7-8---10-8-7-8-7---------7--8--10-12-12-12-12-10-13-12|
G|------------7------------------------7-7--9-------------------------------|
D|--------------------------------------------------------------------------|
A|--------------------------------------------------------------------------|
D|--------------------------------------------------------------------------|

e|-7--7-7-7-7-8-10-10-8----7--7-7-7-7-8-10-10-8-7--------10---------10------|
B|----------------------8-------------------------7-8--8----8-8--8-----8-8--|
G|--------------------------------------------------------------------------|
D|--------------------------------------------------------------------------|
A|--------------------------------------------------------------------------|
D|--------------------------------------------------------------------------|

e|--------------------7--7-7-7-7-8-10-10--8----7--7-7-7-7-8-10-10--8-7------|
B|-7-8-7-8--10-12-12------------------------8--------------------------8-8--|
G|--------------------------------------------------------------------------|
D|--------------------------------------------------------------------------|
A|--------------------------------------------------------------------------|
D|--------------------------------------------------------------------------|

e|---10--------10-12-10-----------------------------------------------------|
B|-8----8-8--8----------------------10-12-10--------------------------------|
G|----------------------12-12-11-12-----------12-11-12----------------------|
D|--------------------------------------------------------------------------|
A|--------------------------------------------------------------------------|
D|--------------------------------------------------------------------------|

e|--------------------------------------------------------------------------|
B|--------------------------------------------------------------------------|
G|--------------------------------------------------------------------------|
D|--------------------------------------------------------------------------|
A|-2--2--5--2--7--8--7--5---2--2--5--2--0--0-0-0-0--0-----------------------|
D|-2--2--5--2--7--8--7--5---2--2--5--2--0--0-0-0-0--0-----------------------|

e|--------------------------------------------------------------------------|
B|-----7-8-7----------------------7-8-7-8-9--9-9--8--7----------------------|
G|-7-7-------9-7-7------------7-7-----------------------7-------------------|
D|-----------------10-9-----------------------------------------------------|
A|--------------------------------------------------------------------------|
D|--------------------------------------------------------------------------|

e|--------------------------------------------------------------------------|
B|-----7-8-7----------------------7-8-7-8-10--10-10--12--13-8-10------------|
G|-7-7-------9-7--7-----------7-7-------------------------------------------|
D|-----------------10-9-----------------------------------------------------|
A|--------------------------------------------------------------------------|
D|--------------------------------------------------------------------------|
[ Tab from: http://www.guitaretab.com/m/misc-unsigned-bands/184100.html ]
e|--------------------------------------------------------------------------|
B|-10-8-7-8-7----10-8-7-8---10-8-7-8-7---------7--8--10-12-12-12-12-10-13-12|
G|------------7------------------------7-7--9-------------------------------|
D|--------------------------------------------------------------------------|
A|--------------------------------------------------------------------------|
D|--------------------------------------------------------------------------|

e|-7--7-7-7-7-8-10-10-8----7--7-7-7-7-8-10-10-8-7--------10---------10------|
B|----------------------8-------------------------7-8--8----8-8--8-----8-8--|
G|--------------------------------------------------------------------------|
D|--------------------------------------------------------------------------|
A|--------------------------------------------------------------------------|
D|--------------------------------------------------------------------------|

e|--------------------7--7-7-7-7-8-10-10--8----7--7-7-7-7-8-10-10--8-7------|
B|-7-8-7-8--10-12-12------------------------8--------------------------8-8--|
G|--------------------------------------------------------------------------|
D|--------------------------------------------------------------------------|
A|--------------------------------------------------------------------------|
D|--------------------------------------------------------------------------|

e|---10--------10-12-10-----------------------------------------------------|
B|-8----8-8--8----------------------10-12-10--------------------------------|
G|----------------------12-12-11-12-----------12-11-12----------------------|
D|--------------------------------------------------------------------------|
A|--------------------------------------------------------------------------|
D|--------------------------------------------------------------------------|

e|--------------------------------------------------------------------------|
B|--------------------------------------------------------------------------|
G|--------------------------------------------------------------------------|
D|--------------------------------------------------------------------------|
A|-2-2--2-2--2-2--2-2--8-8----2-2--2-2--2-2--2-2--0-0-0-0-------------------|
D|-2-2--2-2--2-2--2-2--8-8----2-2--2-2--2-2--2-2--0-0-0-0-------------------|

e|--------------------------------------------------------------------------|
B|--------------------------------------------------------------------------|
G|--------------------------------------------------------------------------|
D|--------------------------------------------------------------------------|
A|-2-2--2-2--2-2--2-2--8-8----2-2--2-2--2-2--2-2--0-0-0-0-------------------|
D|-2-2--2-2--2-2--2-2--8-8----2-2--2-2--2-2--2-2--0-0-0-0-------------------|

e|--------------------------------------------------------------------------|
B|--------------------------------------------------------------------------|
G|--------------------------------------------------------------------------|
D|--------------------------------------------------------------------------|
A|-2-2--2-2--2-2--2-2--8-8----2-2--2-2--2-2--2-2--0-0-0-0-------------------|
D|-2-2--2-2--2-2--2-2--8-8----2-2--2-2--2-2--2-2--0-0-0-0-------------------|

e|--------------------------------------------------------------------------|
B|--------------------------------------------------------------------------|
G|--------------------------------------------------------------------------|
D|--------------------------------------------------------------------------|
A|-2-2--2-2--2-2--2-2--8-8----2-2--2-2--2-2--2-2--0-0-0-0---5---------------|
D|-2-2--2-2--2-2--2-2--8-8----2-2--2-2--2-2--2-2--0-0-0-0---5---------------|

e|--------------------------------------------------------------------------|
B|------10-8-7-------------------7-8-7-8-7-8-10-----------------------------|
G|-7-7---------8-8-10-12-12---9-----------------9---------------------------|
D|--------------------------------------------------------------------------|
A|--------------------------------------------------------------------------|
D|--------------------------------------------------------------------------|

e|--------------------------------------------------------------------------|
B|----7-8-7-8-7-8-10--------7-8-7-8-7-8-10-12-10-8-10-----------------------|
G|-9-----------------9---9--------------------------------------------------|
D|--------------------------------------------------------------------------|
A|--------------------------------------------------------------------------|
D|--------------------------------------------------------------------------|

e|--------------------------------------------------------------------------|
B|------10-8-7-------------------7-8-7-8-7-8-10-----------------------------|
G|-7-7---------8-8-10-12-12---9-----------------9---------------------------|
D|--------------------------------------------------------------------------|
A|--------------------------------------------------------------------------|
D|--------------------------------------------------------------------------|

e|--------------------------------------------------------------------------|
B|----7-8-7-8-7-8-10--------7-8-7-8-7-8-10-12-10-8-10-----------------------|
G|-9-----------------9---9--------------------------------------------------|
D|--------------------------------------------------------------------------|
A|--------------------------------------------------------------------------|
D|--------------------------------------------------------------------------|

e|--------------------------------------------------------------------------|
B|-10-8-7-8--------7-8-10-12-12-12-12--10-13--------------------------------|
G|----------7--7-9----------------------------------------------------------|
D|--------------------------------------------------------------------------|
A|--------------------------------------------------------------------------|
D|--------------------------------------------------------------------------|

e|-7--7-7-7-7-8-10-10-8----7--7-7-7-7-8-10-10-8-7--------10---------10------|
B|----------------------8-------------------------7-8--8----8-8--8-----8-8--|
G|--------------------------------------------------------------------------|
D|--------------------------------------------------------------------------|
A|--------------------------------------------------------------------------|
D|--------------------------------------------------------------------------|

e|--------------------7--7-7-7-7-8-10-10--8----7--7-7-7-7-8-10-10--8-7------|
B|-7-8-7-8--10-12-12------------------------8--------------------------8-8--|
G|--------------------------------------------------------------------------|
D|--------------------------------------------------------------------------|
A|--------------------------------------------------------------------------|
D|--------------------------------------------------------------------------|

e|---10--------10-12-10----------------------10-12-10-----------------------|
B|-8----8-8--8----------------------10-12-13--------------------------------|
G|----------------------12-12-11-12-----------------------------------------|
D|--------------------------------------------------------------------------|
A|--------------------------------------------------------------------------|
D|--------------------------------------------------------------------------|

e|--------------------------------------------------------------------------|
B|--------------------------------------------------------------------------|
G|-9-9-9-9-9-9-9-9-9-9-9-12-11--9-9-9-9-9-9-9-9-9-9-9-14-12-----------------|
D|--------------------------------------------------------------------------|
A|-7-7-7-7-7-7-7-7-7-7-7-10--9--7-7-7-7-7-7-7-7-7-7-7-12-10-----------------|
D|--------------------------------------------------------------------------|

e|--------------------------------------------------------------------------|
B|--------------------------------------------------------------------------|
G|-9-9-9-9-9-9-9-9-9-9-9-12-11--9-9-9-9-9-9-9-9-9-9-9-14-12-----------------|
D|--------------------------------------------------------------------------|
A|-7-7-7-7-7-7-7-7-7-7-7-10--9--7-7-7-7-7-7-7-7-7-7-7-12-10-----------------|
D|--------------------------------------------------------------------------|

e|--------------------------------------------------------------------------|
B|--------------------------------------------------------------------------|
G|--------------------------------------------------------------------------|
D|--------------------------------------------------------------------------|
A|-2-2--2--2-2--------------------------------------------------------------|
D|-2-2--2--2-2--------------------------------------------------------------|
Related for Joint - Mami Kawada Shakugan No Shana tab