Song name
# A B C D E F G H I J K L M N O P Q R S T U V W X Y Z

Misc Unsigned Bands - Bcap - Malting Malting Malting tab

***** is malting!!!!

This is sooo easy to play!

e|-3-4--5--6---7--8-9-0-4/5--5--7--9---------------------6--8--0-0-0-0-0-0-9|
B|-----------------------------------6--6--6--6--4---8--6------------------9|
G|--------------------------------------------------------------------------|
D|--------------------------------------------------------------------------|
A|--------------------------------------------------------------------------|
E|--------------------------------------------------------------------------|

e|-----------------------------------------------------------------0-0-0-0-0|
B|---------------------------------------------------0-0-0--0---0-----------|
G|------------------------------------0----0-0--0--0------------------------|
D|-----------------------------0--0--0--0-----------------------------------|
A|---------------0-0-0-0-0-0-0----------------------------------------------|
E|-0-0-0-0-0-0-0------------------------------------------------------------|

Thats it
told it was easy!
Tap to rate this tab
 
# A B C D E F G H I J K L M N O P Q R S T U V W X Y Z