Song name
# A B C D E F G H I J K L M N O P Q R S T U V W X Y Z

Misc Unsigned Bands - The Bleedout - Despair Affect tab

D--------------------------------------|
A--------------------------------------|
F--------------------------------------|  repeat 7times. after the second time
C---2-2-2---2-2-2---2-2-2------2-2-2-2-|  you play it the vocals kick in
G---1-1-1---1-1-1---1-1-1------1-1-1-1-|
D-0-------0-------0-------0-0----------|

D--------------------------------------|
A--------------------------------------|
F--------------------------------------|  repeat four times
C--2-2-2-2-2---------------------------|when you play this the fourth time
G--2-2-2-2-2---------------------------|it ends with bendind the
D--0-0-0-0-0---0-1-3-4-3-1-3-----------|

D----------------------------------|
A----------------------------------|
F----------------------------------|
C-2-2------------------------------|
G-2-2------------------------------|
D-0-0-0-1-3-1-3-4-3-1-3-4-3--------|

D---------------------------|
A---------------------------|
F---------------------------| verse
C-2-2-----------------------|
G-2-2-----------------------|
D-0-0-0-1-3-1-3-4-3-1-3-4-0-|

D--------------------------------------------|
A--------------------------------------------|
F--------------------------------------------| pre chorus
C-2-2-2--2-2-2-2-2-2-2-2-2-2-2-2--222-222-222|
G-2-2-2--2-2-2-2-2-2-2-2-2-2-2-2--222-222-222|
D-0-0-0--3-1-0-0-0-4-1-0-0-0-3-1--000-000-000|


                 CHORUS
D-------------------------------------------------------------------------|
A-------------------------------------------------------------------------|
F----------5------------------------------5-------------------------------|
C--7---2---5--3---------------------7--2--5--3--------12-------12-------12|
G--7---2---3--3---2-3-2---2-3-2-----7--2--3--3-----10----10-10----10-10---|
D--5---0------1---------3-------3---5--0-----1----------------------------|

          (not sure what you call this part)
D------------------------------------------------------------|
A------------------------------------------------------------|
F-------2---2------------------------------------------------| x-4
C-------2---2-------------------------7---5------------------|
G-0-0-0---0-0--------5-7-8-7----3-3-3-3-3-3---------2-3-2----|
D--------------0-0-0--------------------------1-1-1-------3--|


you can figure out the rest of the song after learning all of this. listen to the song 
figure out the exact rythm
Tap to rate this tab
# A B C D E F G H I J K L M N O P Q R S T U V W X Y Z