Song name
# A B C D E F G H I J K L M N O P Q R S T U V W X Y Z

Misc Unsigned Bands - Lifes Breath - Through Closed Eyes tab

Help us improve GuitareTab! Take a short survey!
Drop D
Intro

(Guitar I)
--------------------------------------------------------------------|
--------------------------------------------------------------------|
--------------------------------------------------------------------|(X4)
---0-0--------0------0---------------0-0--------0-------0--5h6p5----|
---0-0----3-2-0--5-3-0--3p2p0-3p2p0--0-0--3-2---0---5-3-0--------6--|
---0-0--------0------0---------------0-0--------0-------0-----------|


(Guitar II) come in on 2nd time
--------------------------------------------------------------------|
-----------------------------------------------------------7h8p7----|
----------5-4----7-5----7p5p0-7p5p0-------5-4-------7-5----------8--|(X3)
---0-0--------0------0---------------0-0--------0-------0-----------|
---0-0--------0------0---------------0-0--------0-------0-----------|
---0-0--------0------0---------------0-0--------0-------0-----------|


Verse

(Guitar 1) all tremolo
--------------------------------------------------------------------|
--------------------------------------------------------------------|
--------------------------------------------------------------------|
--------------------------------------------5--3--6--5--------------|
-----3--2--3--5--3--2--3-----------3--2--3--------------------------|
--------------------------------------------------------------------|


(Guitar 2)
--------------------------------------------------------------------|
--------------------------------------------7--5--8--7--------------|
-----5--4--5--7--5--4--5-----------5--4--5--------------------------|
--------------------------------------------------------------------|
--------------------------------------------------------------------|
--------------------------------------------------------------------|
Related for Lifes Breath - Through Closed Eyes tab