Song name
# A B C D E F G H I J K L M N O P Q R S T U V W X Y Z

Misc Unsigned Bands - Keegan Mccormick - Peace In The Fields tab

  Intro
   4/4
    Gtr I
 |-------------------------------------------------------------------|
 |-------------------------------------------------------------------|
 |------0-------0-------0-------0-------0-------0-------0-------0----| X2
 |----0---0---0---0---0---0---0---0---0---0---0---0---0---0---0---0--|
 |--2-------2-------3-------3-------2-------2-------0-------0--------|
 |-------------------------------------------------------------------|


   Verse
    Q=175
 |--0-0-2-2-2-0-0-2-2-3p2-0-0-2-2-2-0-0-2-2-3p2--|
 |--3-3-3-3-3-3-3-3-3-----3-3-3-3-3-3-3-3-3------|
 |--2-2-2-2-2-2-2-2-2-----0-0-0-0-0-0-0-2-2------| X2
 |-----------------------------------------------|
 |-----------------------------------------------|
 |-----------------------------------------------|

   Chorus

 A (X16) D (X16) A (X16) G

 Repeat verse and chorus again, then play interlude.


  Interlude

 D (X5) A (X5) C (X5) G (X5)  X2

 repeat verse and chorus.
 then after that play the verse section at a slower tempo (and play it quieter also),  
the outro.


 p= pull-off
Tap to rate this tab
# A B C D E F G H I J K L M N O P Q R S T U V W X Y Z