Song name
# A B C D E F G H I J K L M N O P Q R S T U V W X Y Z

Misc Unsigned Bands - Canadian Moose - Neutral Garden tab

                             Neutral Garden
                          written by Cody Smith
Intro
---------------------------------------------------------------------|
---------------------------------------------------------------------|
-9-8-9-8-9-8-------8-9-8-9-8-------8-9-8-9-8-------------------------|
-9-9-9-9-9-9-------9-9-9-9-9-------9-9-9-9-9-------------------------|
-------------7--7------------7--7-------------7--7-------------------|
-------------0--0------------0--0-------------0--0-------------------|

---------------------------------------------------------------------|
---------------------------------------------------------------------|
-7-6-7-6-7-6-------7-6-7-6-7-----------------------------------------|
-7-7-7-7-7-7-------7-7-7-7-7---7--7-----5/---------------------------|
----------------7--------------5--5-----5/---------------------------|
-------------0--5----------------------------------------------------|

Verse
p.m.............................
---------------------------------------------------------------------|
---------------------------------------------------------------------|
-9-9-9-8-9-8-8-8-9-8-9-8-9-8-9-8-------------------------------------|
-9-9-9-9-9-9-9-9-9-9-9-9-9-9-9-9-------------------------------------|  X2
---------------------------------------------------------------------|
---------------------------------------------------------------------|

 * * * * * * * *  *****  * * * * * * *** *           *=Natural Harmonics
---------------------------------------------------------------------|
---------------------------------------------------------------------|
-9-9-9-9-9-9-9-9--x-x-x--8-8-8-8-8-8-x-x-9---------------------------|
-9-9-9-9-9-9-9-9--x-x-x--9-9-9-9-9-9-x-x-9---------------------------| X2
---------------------------------------------------------------------|
---------------------------------------------------------------------|

p.m. ...........................
---------------------------------------------------------------------|
---------------------------------------------------------------------|
-9-9-9-8-9-8-8-8-9-8-9-8-9-8-9-8-------------------------------------|
-9-9-9-9-9-9-9-9-9-9-9-9-9-9-9-9-------------------------------------| X2
---------------------------------------------------------------------|
---------------------------------------------------------------------|

Chorus
p.m.............................................................
---------------------------------------------------------------------|
-------12--------------12----------------12------------12------------|
----------11--------------11-11-11----------11------------11-11------|
-9-9-9-------9-9-9-9-9-------------9-9-9-------9-9-9-9---------------|
---------------------------------------------------------------------|
---------------------------------------------------------------------|

p.m................................
---------------------------------------------------------------------|
-------------15--------------10-10-----------------------------------|
----------------14-----9-9-9-----------------------------------------| X2
-12-12-12-12---------7-----------------------------------------------|
---------------------------------------------------------------------|
---------------------------------------------------------------------|

guitar solo   w/uni-vibe
         ~~~~         ~~~~~~            ~~~               ~~~~~~~
------------------------------------------------------------------------|
-----------------------------------------------14-----------------------|
----------------------------------11--11---13b----13pb--11--------------|
-----7--7---------9--9------11/13---------------------------------------|
-7/9---------9/11-------------------------------------------------------|
------------------------------------------------------------------------|

Ending         ~~~~~~~~~~~
------------------------------------------------------------------------|
-7b--5--4---------------------------------------------------------------|
-7b--5--4---4h5---------------------------------------------------------|
------------------------------------------------------------------------|
------------------------------------------------------------------------|
------------------------------------------------------------------------|
Tap to rate this tab
 
# A B C D E F G H I J K L M N O P Q R S T U V W X Y Z