Song name
# A B C D E F G H I J K L M N O P Q R S T U V W X Y Z

Misc Unsigned Bands - Dewey - Im Just Wondering tab

E-3---------------|-0---------------|-----------------|-2---------------|
B-----------------|-----------------|-1---------------|---1---1---1---1-|
G---0---0---0---0-|---0---0---0---0-|---2---2---2---2-|-----2---2---2---|
D-----0---0---0---|-----2---2---2---|-----2---2---2---|-0---------------|
A-2---------------|-2---------------|-0---------------|-----------------|
E-----------------|-----------------|-----------------|-----------------|

     ^
     |
     |  This is the same measuse. After that it is the same thing.
     |       

E-3---------------|
B-----------------|
G---0---0---0---0-|
D-----0---0---0---|
A-2---------------|
E-----------------|


This is all I have so far. Tell me if you like it. 
Tap to rate this tab
# A B C D E F G H I J K L M N O P Q R S T U V W X Y Z