Song name
# A B C D E F G H I J K L M N O P Q R S T U V W X Y Z

Misc Unsigned Bands - Shiny White Lights - 2012 tab

-------------------------------------------------------------------------------
			     2012 - Shiny White Lights
-------------------------------------------------------------------------------
Music and Lyrics by: Brendan Cain
Tabbed by: Brendan Cain

Tuning: Standard
Instrument: Guitar


www.shinywhitelights.com
myspace.com/shinywhitelights



     ^        ^            ^        ^           ^        ^           ^        ^         
     H        H            H        H           H        H           H        H         
E||--------------------|---------------------|--------------------|--------------------|
B||-----------8--------|--10--------8--------|--------------------|--8-----------------|
G||--7--------8--------|--10--------8--------|--7--------3--------|--8--------2--------|
D||--8--------8--------|--10--------8--------|--8--------5--------|--8--------3--------|
A||--8--------6--------|---8--------6--------|--8--------5--------|--6--------3--------|
E||--6-----------------|---------------------|--6--------3--------|-----------1--------|


  ^        ^            ^        ^           ^        ^           ^        ^                 
  H        H            H        H           H        H           H        W                 
--------------------|---------------------|--------------------|----------------------------|
-----------8--------|--10--------8--------|-----------7--------|--8-------------------------|
--7--------8--------|--10--------8--------|--7--------7--------|--8--------7----------------|
--8--------8--------|--10--------8--------|--8--------7--------|--8--------8----------------|
--8--------6--------|---8--------6--------|--8--------5--------|--6--------8----------------|
--6-----------------|---------------------|--6-----------------|-----------6----------------|


  S S E  S E  E  S E  S E   S    S  S  E   S  E  E  S E  S E   S  
------------------------------|----------------------------------|
------------------------------|----------------------------------|
--------------8--8-8--8-8--10-|--L-10-10--10-10--8--8-8--8-8-----|
--8-8-8--8-8--8--8-8--8-8--10-|--L-10-10--10-10--8--8-8--8-8--12-|
--8-8-8--8-8--6--6-6--6-6---8-|--L--8--8---8--8--6--6-6--6-6--12-|
--6-6-6--6-6------------------|-------------------------------10-|


   S  S  E   S  E  E  S E  S E  S    S S S S S S S S S S S S S S S S    S S E  S E  E  S E  S E  S  
----------------------------------|----------------------------------|-----------------------------|
----------------------------------|----------------------------------|-----------------------------|
----------------------------------|----------------------------------|--------------8--8-8--8-8--7-|
---L-12-12--12-12--5--5-5--5-5--3-|--L-3-3-3-3-3-3-3-3-3-3-3-3-3-3-3-|--8-8-8--8-8--8--8-8--8-8--8-|
---L-12-12--12-12--5--5-5--5-5--3-|--L-3-3-3-3-3-3-3-3-3-3-3-3-3-3-3-|--8-8-8--8-8--6--6-6--6-6--5-|
---L-10-10--10-10--3--3-3--3-3--1-|--L-1-1-1-1-1-1-1-1-1-1-1-1-1-1-1-|--6-6-6--6-6-----------------|


  S S E  S E  E  S E  S E  S     S S E  S S S E  S E  S S S S    S S E  S S S S S S S S S S S S  
-----------------------------|--------------------------------|---------------------------------|
-----------------------------|--------------------------------|---------------------------------|
--L-7-7--7-7--5--5-5--5-5----|----------------8--8-8--8-8-8---|---------------------------------|
--L-8-8--8-8--5--5-5--5-5--3-|---L-3-3--3-3-3-8--8-8--8-8-8-8-|--L-8-8--8-8-8-8-8-8-8-8-8-8-8-8-|
--L-5-5--5-5--3--3-3--3-3--3-|---L-3-3--3-3-3-6--6-6--6-6-6-8-|--L-8-8--8-8-8-8-8-8-8-8-8-8-8-8-|
---------------------------1-|---L-1-1--1-1-1---------------6-|--L-6-6--6-6-6-6-6-6-6-6-6-6-6-6-|


     PM PM PM PM PM PM PM PM PM PM PM PM PM        PM PM PM PM PM PM PM PM PM PM PM PM PM PM    
  E  S  S  S  S  S  S  S  S  S  S  S  S  S  S    S S  S  S  S  S  S  S  S  S  S  S  S  S  S  S  
----------------------------------------------|------------------------------------------------|
----------------------------------------------|------------------------------------------------|
----------------------------------------------|----------------------------------------------8-|
--8-----------------------------------------7-|--L-------------------------------------------8-|
--8--8--8--8--8--8--8--8--8--8--8--8--8--8--8-|--L-8--8--8--8--8--8--8--8--8--8--8--8--8--8--6-|
--6--6--6--6--6--6--6--6--6--6--6--6--6--6--5-|--L-5--5--5--5--5--5--5--5--5--5--5--5--5--5----|


  S S S S S S S E  S S S S S S S    S S E  S S E  S S S S S S S S  
---------------------------------|--------------------------------|
---------------------------------|--------------------------------|
--L-8-8-8-7-7-7-8--8-8-8-7-7-7---|--------------------------------|
--L-8-8-8-8-8-8-8--8-8-8-8-8-8-3-|--L-3-3--3-3-3--3-3-3-3-3-3-3-3-|
--L-6-6-6-6-6-6-6--6-6-6-6-6-6-3-|--L-3-3--3-3-3--3-3-3-3-3-3-3-3-|
-------------------------------1-|--L-1-1--1-1-1--1-1-1-1-1-1-1-1-|


     PM PM PM PM PM PM PM PM PM PM PM PM PM        PM PM PM PM PM PM PM PM PM PM PM PM PM PM    
  E  S  S  S  S  S  S  S  S  S  S  S  S  S  S    S S  S  S  S  S  S  S  S  S  S  S  S  S  S  S  
----------------------------------------------|------------------------------------------------|
----------------------------------------------|------------------------------------------------|
----------------------------------------------|----------------------------------------------8-|
--8-----------------------------------------7-|--L-------------------------------------------8-|
--8--8--8--8--8--8--8--8--8--8--8--8--8--8--8-|--L-8--8--8--8--8--8--8--8--8--8--8--8--8--8--6-|
--6--6--6--6--6--6--6--6--6--6--6--6--6--6--5-|--L-5--5--5--5--5--5--5--5--5--5--5--5--5--5----|


  S S S S S S S E  S S S S S S  S    S  S  E   S  S  E   S  S  S  S  S  S  S  S  
----------------------------------|---------------------------------------------|
----------------------------------|---------------------------------------------|
--L-8-8-8-7-7-7-8--8-8-8-7-7-7-10-|--L-10-10--10-10-10--10-10-10-10-10-10-10-10-|
--L-8-8-8-8-8-8-8--8-8-8-8-8-8-10-|--L-10-10--10-10-10--10-10-10-10-10-10-10-10-|
--L-6-6-6-6-6-6-6--6-6-6-6-6-6--8-|--L--8--8---8--8--8---8--8--8--8--8--8--8--8-|
----------------------------------|---------------------------------------------|


  S S E  S E  E  S E  S E   S    S  S  E   S  E  E  S E  S E   S  
------------------------------|----------------------------------|
------------------------------|----------------------------------|
--------------8--8-8--8-8--10-|--L-10-10--10-10--8--8-8--8-8-----|
--8-8-8--8-8--8--8-8--8-8--10-|--L-10-10--10-10--8--8-8--8-8--12-|
--8-8-8--8-8--6--6-6--6-6---8-|--L--8--8---8--8--6--6-6--6-6--12-|
--6-6-6--6-6------------------|-------------------------------10-|


   S  S  E   S  E  E  S E  S E  S    S S S S S S S S S S S S S S S S    S S E  S E  E  S E  S E  S  
----------------------------------|----------------------------------|-----------------------------|
----------------------------------|----------------------------------|-----------------------------|
----------------------------------|----------------------------------|--------------8--8-8--8-8--7-|
---L-12-12--12-12--5--5-5--5-5--3-|--L-3-3-3-3-3-3-3-3-3-3-3-3-3-3-3-|--8-8-8--8-8--8--8-8--8-8--8-|
---L-12-12--12-12--5--5-5--5-5--3-|--L-3-3-3-3-3-3-3-3-3-3-3-3-3-3-3-|--8-8-8--8-8--6--6-6--6-6--5-|
---L-10-10--10-10--3--3-3--3-3--1-|--L-1-1-1-1-1-1-1-1-1-1-1-1-1-1-1-|--6-6-6--6-6-----------------|


  S S E  S E  E  S E  S E  S     S S E  S S S E  S E  S S S S    S S E  S S S S S S S S S S S S  
-----------------------------|--------------------------------|---------------------------------|
-----------------------------|--------------------------------|---------------------------------|
--L-7-7--7-7--5--5-5--5-5----|----------------8--8-8--8-8-8---|---------------------------------|
--L-8-8--8-8--5--5-5--5-5--3-|---L-3-3--3-3-3-8--8-8--8-8-8-8-|--L-8-8--8-8-8-8-8-8-8-8-8-8-8-8-|
--L-5-5--5-5--3--3-3--3-3--3-|---L-3-3--3-3-3-6--6-6--6-6-6-8-|--L-8-8--8-8-8-8-8-8-8-8-8-8-8-8-|
---------------------------1-|---L-1-1--1-1-1---------------6-|--L-6-6--6-6-6-6-6-6-6-6-6-6-6-6-|


     PM PM PM PM PM PM PM PM PM PM PM PM PM        PM PM PM PM PM PM PM PM PM PM PM PM PM PM    
  E  S  S  S  S  S  S  S  S  S  S  S  S  S  S    S S  S  S  S  S  S  S  S  S  S  S  S  S  S  S  
----------------------------------------------|------------------------------------------------|
----------------------------------------------|------------------------------------------------|
----------------------------------------------|----------------------------------------------8-|
--8-----------------------------------------7-|--L-------------------------------------------8-|
--8--8--8--8--8--8--8--8--8--8--8--8--8--8--8-|--L-8--8--8--8--8--8--8--8--8--8--8--8--8--8--6-|
--6--6--6--6--6--6--6--6--6--6--6--6--6--6--5-|--L-5--5--5--5--5--5--5--5--5--5--5--5--5--5----|


  S S S S S S S E  S S S S S S S    S S E  S S E  S S S S S S S S  
---------------------------------|--------------------------------|
---------------------------------|--------------------------------|
--L-8-8-8-7-7-7-8--8-8-8-7-7-7---|--------------------------------|
--L-8-8-8-8-8-8-8--8-8-8-8-8-8-3-|--L-3-3--3-3-3--3-3-3-3-3-3-3-3-|
--L-6-6-6-6-6-6-6--6-6-6-6-6-6-3-|--L-3-3--3-3-3--3-3-3-3-3-3-3-3-|
-------------------------------1-|--L-1-1--1-1-1--1-1-1-1-1-1-1-1-|


     PM PM PM PM PM PM PM PM PM PM PM PM PM        PM PM PM PM PM PM PM PM PM PM PM PM PM PM    
  E  S  S  S  S  S  S  S  S  S  S  S  S  S  S    S S  S  S  S  S  S  S  S  S  S  S  S  S  S  S  
----------------------------------------------|------------------------------------------------|
----------------------------------------------|------------------------------------------------|
----------------------------------------------|----------------------------------------------8-|
--8-----------------------------------------7-|--L-------------------------------------------8-|
--8--8--8--8--8--8--8--8--8--8--8--8--8--8--8-|--L-8--8--8--8--8--8--8--8--8--8--8--8--8--8--6-|
--6--6--6--6--6--6--6--6--6--6--6--6--6--6--5-|--L-5--5--5--5--5--5--5--5--5--5--5--5--5--5----|


  S S S S S S S E  S S S S S S  S    S  S  E   S  S  E   S  S  S  S  S  S  S  S  
----------------------------------|---------------------------------------------|
----------------------------------|---------------------------------------------|
--L-8-8-8-7-7-7-8--8-8-8-7-7-7-10-|--L-10-10--10-10-10--10-10-10-10-10-10-10-10-|
--L-8-8-8-8-8-8-8--8-8-8-8-8-8-10-|--L-10-10--10-10-10--10-10-10-10-10-10-10-10-|
--L-6-6-6-6-6-6-6--6-6-6-6-6-6--8-|--L--8--8---8--8--8---8--8--8--8--8--8--8--8-|
----------------------------------|---------------------------------------------|


  S S E  S E  E  S E  S E   S    S  S  E   S  E  E  S E  S E   S  
------------------------------|----------------------------------|
------------------------------|----------------------------------|
--------------8--8-8--8-8--10-|--L-10-10--10-10--8--8-8--8-8-----|
--8-8-8--8-8--8--8-8--8-8--10-|--L-10-10--10-10--8--8-8--8-8--12-|
--8-8-8--8-8--6--6-6--6-6---8-|--L--8--8---8--8--6--6-6--6-6--12-|
--6-6-6--6-6------------------|-------------------------------10-|


   S  S  E   S  E  E  S E  S E  S    S S S S S S S S S S S S S S S S    S S E  S E  E  S E  S E  S  
----------------------------------|----------------------------------|-----------------------------|
----------------------------------|----------------------------------|-----------------------------|
----------------------------------|----------------------------------|--------------8--8-8--8-8--7-|
---L-12-12--12-12--5--5-5--5-5--3-|--L-3-3-3-3-3-3-3-3-3-3-3-3-3-3-3-|--8-8-8--8-8--8--8-8--8-8--8-|
---L-12-12--12-12--5--5-5--5-5--3-|--L-3-3-3-3-3-3-3-3-3-3-3-3-3-3-3-|--8-8-8--8-8--6--6-6--6-6--5-|
---L-10-10--10-10--3--3-3--3-3--1-|--L-1-1-1-1-1-1-1-1-1-1-1-1-1-1-1-|--6-6-6--6-6-----------------|


  S S E  S E  E  S E  S E  S     S S E  S S S E  S E  S S S S    S S E  S S S S S S S S S S S S  
-----------------------------|--------------------------------|---------------------------------|
-----------------------------|--------------------------------|---------------------------------|
--L-7-7--7-7--5--5-5--5-5----|----------------8--8-8--8-8-8---|---------------------------------|
--L-8-8--8-8--5--5-5--5-5--3-|---L-3-3--3-3-3-8--8-8--8-8-8-8-|--L-8-8--8-8-8-8-8-8-8-8-8-8-8-8-|
--L-5-5--5-5--3--3-3--3-3--3-|---L-3-3--3-3-3-6--6-6--6-6-6-8-|--L-8-8--8-8-8-8-8-8-8-8-8-8-8-8-|
---------------------------1-|---L-1-1--1-1-1---------------6-|--L-6-6--6-6-6-6-6-6-6-6-6-6-6-6-|


  E  S S S S S E  S S S S S S S    E  S S S S S E  S S S S S S S    E  S S S S S E  S S S S S S S  
--------------------------------|--------------------------------|--------------------------------|
--------------------------------|--------------------------------|--------------------------------|
---------------7--7-7-7-7-7-7-7-|--8--8-8-8-8-8------------------|--------------------------------|
--8--8-8-8-8-8-7--7-7-7-7-7-7-7-|--8--8-8-8-8-8-8--8-8-8-8-8-8-8-|--5--5-5-5-5-5-8--8-8-8-8-8-8-8-|
--8--8-8-8-8-8-5--5-5-5-5-5-5-5-|--6--6-6-6-6-6-8--8-8-8-8-8-8-8-|--5--5-5-5-5-5-8--8-8-8-8-8-8-8-|
--6--6-6-6-6-6------------------|---------------6--6-6-6-6-6-6-6-|--3--3-3-3-3-3-6--6-6-6-6-6-6-6-|


  E  S S S S S E  S S S S S S S    E  S S E  S S E  S S E  S S    E  E  S S S E  S S S S S S S  
--------------------------------|------------------------------|-------------------------------|
--------------------------------|------------------------------|-------------------------------|
--------------------------------|---------7--x-x-8--x-x--------|--------3-3-3-5--5-5-5-5-5-5-5-|
--3--3-3-3-3-3-3--3-3-3-3-3-3-3-|--8--x-x-7--x-x-8--x-x-8--x-x-|--5--5--3-3-3-5--5-5-5-5-5-5-5-|
--3--3-3-3-3-3-3--3-3-3-3-3-3-3-|--8--x-x-5--x-x-6--x-x-8--x-x-|--5--5--1-1-1-3--3-3-3-3-3-3-3-|
--1--1-1-1-1-1-1--1-1-1-1-1-1-1-|--6--x-x---------------6--x-x-|--3--3-------------------------|


                                                                    ^                 
  E  S S S S S E  S S S S S S S    S S S S S S E.  S S S S S S S    W                 
--------------------------------|--------------------------------|-------------------|
--------------------------------|--------------------------------|-------------------|
--------------------------------|--8-x-x-7-x-x-------------------|--7----------------|
--3--3-3-3-3-3-3--3-3-3-3-3-3-3-|--8-x-x-7-x-x-8---8-8-8-8-8-8-8-|--8----------------|
--3--3-3-3-3-3-3--3-3-3-3-3-3-3-|--6-x-x-5-x-x-8---6-8-8-8-8-8-8-|--8----------------|
--1--1-1-1-1-1-1--1-1-1-1-1-1-1-|--------------6---6-6-6-6-6-6-6-|--6----------------|


  ^                   ^                   ^                                           
  W                   W                   W                   Q    E.  E  S E  E  E   
-------------------|-------------------|-------------------|-------------------------|
--7----------------|--8----------------|--7----------------|-------------------------|
--7----------------|--8----------------|--8----------------|--7----7---7--7-L--7--L--|
--7----------------|--8----------------|--8----------------|--8----8---8--8-L--8--L--|
--5----------------|--6----------------|--6----------------|--8----8---8--8-L--8--L--|
-------------------|-------------------|-------------------|--6----6---6--6-6--6--6--|


  Q    E.  E  S E  E  E     Q    E.  E  S E  E  E     Q    E.  E  S E  E  E   
-------------------------|-------------------------|-------------------------|
--7----7---7--7-L--7--L--|--8----8---8--8-L--8--L--|--7----7---7--7-L--7--L--|
--7----7---7--7-L--7--L--|--8----8---8--8-L--8--L--|--8----8---8--8-L--8--L--|
--7----7---7--7-L--7--L--|--8----8---8--8-L--8--L--|--8----8---8--8-L--8--L--|
--5----5---5--5-5--5--5--|--6----6---6--6-6--6--6--|--6----6---6--6-6--6--6--|
-------------------------|-------------------------|-------------------------|


  Q    E.  E  S E  E  E     Q    E.  E  S E  E  E     Q    E.  E  S E  E  E   
-------------------------|-------------------------|-------------------------|
-------------------------|--7----7---7--7-L--7--L--|--8----8---8--8-L--8--L--|
--7----7---7--7-L--7--L--|--7----7---7--7-L--7--L--|--8----8---8--8-L--8--L--|
--8----8---8--8-L--8--L--|--7----7---7--7-L--7--L--|--8----8---8--8-L--8--L--|
--8----8---8--8-L--8--L--|--5----5---5--5-5--5--5--|--6----6---6--6-6--6--6--|
--6----6---6--6-6--6--6--|-------------------------|-------------------------|


  Q    E.  E  S E  E  E     Q    E.  E  S E  E  E     Q    E.  E  S E  E  E   
-------------------------|-------------------------|-------------------------|
--7----7---7--7-L--7--L--|-------------------------|--7----7---7--7-L--7--L--|
--8----8---8--8-L--8--L--|--7----7---7--7-L--7--L--|--7----7---7--7-L--7--L--|
--8----8---8--8-L--8--L--|--8----8---8--8-L--8--L--|--7----7---7--7-L--7--L--|
--6----6---6--6-6--6--6--|--8----8---8--8-L--8--L--|--5----5---5--5-5--5--5--|
-------------------------|--6----6---6--6-6--6--6--|-------------------------|


  Q    E.  E  S E  E  E     Q    E.  E  S E  E  E     Q    E.  E  S E  E  E   
-------------------------|-------------------------|-------------------------|
--8----8---8--8-L--8--L--|--7----7---7--7-L--7--L--|-------------------------|
--8----8---8--8-L--8--L--|--8----8---8--8-L--8--L--|--7----7---7--7-L--7--L--|
--8----8---8--8-L--8--L--|--8----8---8--8-L--8--L--|--8----8---8--8-L--8--L--|
--6----6---6--6-6--6--6--|--6----6---6--6-6--6--6--|--8----8---8--8-L--8--L--|
-------------------------|-------------------------|--6----6---6--6-6--6--6--|


  Q    E.  E  S E  E  E     Q    E.  E  S E  E  E     W                 
-------------------------|-------------------------|-------------------|
--7----7---7--7-L--7--L--|--8----8---8--8-L--8--L--|--7----------------|
--7----7---7--7-L--7--L--|--8----8---8--8-L--8--L--|--8----------------|
--7----7---7--7-L--7--L--|--8----8---8--8-L--8--L--|--8----------------|
--5----5---5--5-5--5--5--|--6----6---6--6-6--6--6--|--6----------------|
-------------------------|-------------------------|-------------------|


  E  S S S S S E  S S S S S S S    E  S S S S S E  S S S S S S S    E  S S S S S E  S S S S S S S  
--------------------------------|--------------------------------|--------------------------------|
--------------------------------|--------------------------------|--------------------------------|
---------------7--7-7-7-7-7-7-7-|--8--8-8-8-8-8------------------|--------------------------------|
--8--8-8-8-8-8-7--7-7-7-7-7-7-7-|--8--8-8-8-8-8-8--8-8-8-8-8-8-8-|--5--5-5-5-5-5-8--8-8-8-8-8-8-8-|
--8--8-8-8-8-8-5--5-5-5-5-5-5-5-|--6--6-6-6-6-6-8--8-8-8-8-8-8-8-|--5--5-5-5-5-5-8--8-8-8-8-8-8-8-|
--6--6-6-6-6-6------------------|---------------6--6-6-6-6-6-6-6-|--3--3-3-3-3-3-6--6-6-6-6-6-6-6-|


  E  S S S S S E  S S S S S S S    E  S S E  S S E  S S E  S S    E  E  S S S E  S S S S S S S  
--------------------------------|------------------------------|-------------------------------|
--------------------------------|------------------------------|-------------------------------|
--------------------------------|---------7--x-x-8--x-x--------|--------3-3-3-5--5-5-5-5-5-5-5-|
--3--3-3-3-3-3-3--3-3-3-3-3-3-3-|--8--x-x-7--x-x-8--x-x-8--x-x-|--5--5--3-3-3-5--5-5-5-5-5-5-5-|
--3--3-3-3-3-3-3--3-3-3-3-3-3-3-|--8--x-x-5--x-x-6--x-x-8--x-x-|--5--5--1-1-1-3--3-3-3-3-3-3-3-|
--1--1-1-1-1-1-1--1-1-1-1-1-1-1-|--6--x-x---------------6--x-x-|--3--3-------------------------|


  E  S S S S S E  S S S S S S S    S S S S S S E.  S S S S S S S    E  S S S S S E  S S S S S S S  
--------------------------------|--------------------------------|--------------------------------|
--------------------------------|--------------------------------|--------------------------------|
--------------------------------|--8-x-x-7-x-x-------------------|---------------7--7-7-7-7-7-7-7-|
--3--3-3-3-3-3-3--3-3-3-3-3-3-3-|--8-x-x-7-x-x-8---8-8-8-8-8-8-8-|--8--8-8-8-8-8-7--7-7-7-7-7-7-7-|
--3--3-3-3-3-3-3--3-3-3-3-3-3-3-|--6-x-x-5-x-x-8---6-8-8-8-8-8-8-|--8--8-8-8-8-8-5--5-5-5-5-5-5-5-|
--1--1-1-1-1-1-1--1-1-1-1-1-1-1-|--------------6---6-6-6-6-6-6-6-|--6--6-6-6-6-6------------------|


  E  S S S S S E  S S S S S S S    E  S S S S S E  S S S S S S S    E  S S S S S E  S S S S S S S  
--------------------------------|--------------------------------|--------------------------------|
--------------------------------|--------------------------------|--------------------------------|
--8--8-8-8-8-8------------------|--------------------------------|--------------------------------|
--8--8-8-8-8-8-8--8-8-8-8-8-8-8-|--5--5-5-5-5-5-8--8-8-8-8-8-8-8-|--3--3-3-3-3-3-3--3-3-3-3-3-3-3-|
--6--6-6-6-6-6-8--8-8-8-8-8-8-8-|--5--5-5-5-5-5-8--8-8-8-8-8-8-8-|--3--3-3-3-3-3-3--3-3-3-3-3-3-3-|
---------------6--6-6-6-6-6-6-6-|--3--3-3-3-3-3-6--6-6-6-6-6-6-6-|--1--1-1-1-1-1-1--1-1-1-1-1-1-1-|


  E  S S E  S S E  S S E  S S    E  E  S S S E  S S S S S S S    E  S S S S S E  S S S S S S S  
------------------------------|-------------------------------|--------------------------------|
------------------------------|-------------------------------|--------------------------------|
---------7--x-x-8--x-x--------|--------3-3-3-5--5-5-5-5-5-5-5-|--------------------------------|
--8--x-x-7--x-x-8--x-x-8--x-x-|--5--5--3-3-3-5--5-5-5-5-5-5-5-|--3--3-3-3-3-3-3--3-3-3-3-3-3-3-|
--8--x-x-5--x-x-6--x-x-8--x-x-|--5--5--1-1-1-3--3-3-3-3-3-3-3-|--3--3-3-3-3-3-3--3-3-3-3-3-3-3-|
--6--x-x---------------6--x-x-|--3--3-------------------------|--1--1-1-1-1-1-1--1-1-1-1-1-1-1-|


  S S S S S S E.  S S S S S S S    Q    E.  E  S E  E  E     Q    E.  E  S E  E  E   
--------------------------------|-------------------------|-------------------------|
--------------------------------|-------------------------|--7----7---7--7-L--7--L--|
--8-x-x-7-x-x-------------------|--7----7---7--7-L--7--L--|--7----7---7--7-L--7--L--|
--8-x-x-7-x-x-8---8-8-8-8-8-8-8-|--8----8---8--8-L--8--L--|--7----7---7--7-L--7--L--|
--6-x-x-5-x-x-8---6-8-8-8-8-8-8-|--8----8---8--8-L--8--L--|--5----5---5--5-5--5--5--|
--------------6---6-6-6-6-6-6-6-|--6----6---6--6-6--6--6--|-------------------------|


  Q    E.  E  S E  E  E     Q    E.  E  S E  E  E     Q    E.  E  S E  E  E   
-------------------------|-------------------------|-------------------------|
--8----8---8--8-L--8--L--|--7----7---7--7-L--7--L--|-------------------------|
--8----8---8--8-L--8--L--|--8----8---8--8-L--8--L--|--7----7---7--7-L--7--L--|
--8----8---8--8-L--8--L--|--8----8---8--8-L--8--L--|--8----8---8--8-L--8--L--|
--6----6---6--6-6--6--6--|--6----6---6--6-6--6--6--|--8----8---8--8-L--8--L--|
-------------------------|-------------------------|--6----6---6--6-6--6--6--|


  Q    E.  E  S E  E  E     Q    E.  E  S E  E  E     Q    E.  E  S E  E  E   
-------------------------|-------------------------|-------------------------|
--7----7---7--7-L--7--L--|--8----8---8--8-L--8--L--|--7----7---7--7-L--7--L--|
--7----7---7--7-L--7--L--|--8----8---8--8-L--8--L--|--8----8---8--8-L--8--L--|
--7----7---7--7-L--7--L--|--8----8---8--8-L--8--L--|--8----8---8--8-L--8--L--|
--5----5---5--5-5--5--5--|--6----6---6--6-6--6--6--|--6----6---6--6-6--6--6--|
-------------------------|-------------------------|-------------------------|


  Q    E.  E  S E  E  E     Q    E.  E  S E  E  E     Q    E.  E  S E  E  E   
-------------------------|-------------------------|-------------------------|
-------------------------|--7----7---7--7-L--7--L--|--8----8---8--8-L--8--L--|
--7----7---7--7-L--7--L--|--7----7---7--7-L--7--L--|--8----8---8--8-L--8--L--|
--8----8---8--8-L--8--L--|--7----7---7--7-L--7--L--|--8----8---8--8-L--8--L--|
--8----8---8--8-L--8--L--|--5----5---5--5-5--5--5--|--6----6---6--6-6--6--6--|
--6----6---6--6-6--6--6--|-------------------------|-------------------------|


  Q    E.  E  S E  E  E     Q    E.  E  S E  E  E     Q    E.  E  S E  E  E   
-------------------------|-------------------------|-------------------------|
--7----7---7--7-L--7--L--|-------------------------|--7----7---7--7-L--7--L--|
--8----8---8--8-L--8--L--|--7----7---7--7-L--7--L--|--7----7---7--7-L--7--L--|
--8----8---8--8-L--8--L--|--8----8---8--8-L--8--L--|--7----7---7--7-L--7--L--|
--6----6---6--6-6--6--6--|--8----8---8--8-L--8--L--|--5----5---5--5-5--5--5--|
-------------------------|--6----6---6--6-6--6--6--|-------------------------|


  Q    E.  E  S E  E  E     W                   W                   W                  
-------------------------|-------------------|--6----------------|--L----------------||
--8----8---8--8-L--8--L--|--7----------------|--6----------------|--L----------------||
--8----8---8--8-L--8--L--|--8----------------|--7----------------|--L----------------||
--8----8---8--8-L--8--L--|--8----------------|--8----------------|--L----------------||
--6----6---6--6-6--6--6--|--6----------------|--8----------------|--L----------------||
-------------------------|-------------------|--6----------------|--L----------------||




Duration Legend
---------------
W - whole
H - half
Q - quarter
E - 8th
S - 16th
T - 32nd
X - 64th
. - note dotted
|-n-|  - n-tuplets


Tablature Legend
----------------
L - tied note
x - dead note
g - grace note
(n) - ghost note
> - accentuded note
NH - natural harmonic
AH - artificial harmonic
TH - tapped harmonic
SH - semi harmonic
PH - pitch harmonic
h - hammer on
p - pull off
b - bend
br - bendRelease
pb - preBend
pbr - preBendRelease
brb - bendReleaseBend
\n/ - tremolo bar dip
\n - tremolo bar dive
-/n - tremolo bar Release up
/n\ - tremolo bar inverted dip
/n - tremolo bar return
-\n - tremolo bar Release down
S - shift slide
s - legato slide
/ -  slide into from below or out of upwards
\ -  slide into from above or out of downwards
~ - vibrato
W - wide vibrato
tr - trill
TP - tremolo picking
T - tapping
S - slap
P - pop
< - fade in
^ - brush up
v - brush down
Tap to rate this tab
# A B C D E F G H I J K L M N O P Q R S T U V W X Y Z