Song name
# A B C D E F G H I J K L M N O P Q R S T U V W X Y Z

Misc Unsigned Bands - Lifes Breath - Hang Em High tab

Drop D
Intro

Guitar I        Figure Out Strumming
--------------------------------------------------------------------|
--------------------------------------------------------------------|
------------9s10-10-10-10--------------13s14--14--14--14------------|
-0--0000----x-x--x--x--x-----0--0000----x--x---x---x---x------------|
-0--0000----7s8--8--8--8-----0--0000---11s12--12--12--12------------|
-0--0000---------------------0--0000--------------------------------|


Again strumming is probably a little off
--------------------------------------------------------------------|
--------------------------------------------------------------------|
---17--17--17171717--1717--17171717--19--19---19191919---1919-1919--|
----x---x---x-x-x-x---x-x---x-x-x-x---x---x----x-x-x-x----x-x--x-x--| X2
---15--15--15151515--1515--15151515--17--17---17171717---1717-1717--|
--------------------------------------------------------------------|
Tap to rate this tab
# A B C D E F G H I J K L M N O P Q R S T U V W X Y Z