Guitaretab - guitar tabs
Song name
# A B C D E F G H I J K L M N O P Q R S T U V W X Y Z

Misc Unsigned Bands - Herro I Rike Rice - All The Girls tab

(intro)

Met a girl on the internet, hooks in the boys with her fish nets
She leaves the boys with no regrets, queen of all there distress?

(guitar 1)
e---------------------------------------------|
B---------------------------------------------|
G--7-9-7-7-9-7-7-7-7-----7-9-7-7-9-7-7-7-7----|
D-------9-----9-----9-7-9-----9-----9-----9-7-|
A---------------------------------------------|
E---------------------------------------------|

(guitar 2)
e---------------------------------------------------------------------|
B---------------------------------------------------------------------|
G--10-12-10-10-12-10-10-10-10---------10-12-10-10-12-10-10-10-10------|
D----------12-------12-------12-10-12---------12-------12-------12-10-|
A---------------------------------------------------------------------|
E---------------------------------------------------------------------|

(verse 1)
[ Tab from: http://www.guitaretab.com/m/misc-unsigned-bands/184725.html ]
With her pearly white necklace and her daft damned allure.  We was feeling a bit 
that oneís for sure*.  She was dressed to impress and it was destined to be, a certain romance...

*repeat once*
e------------------------------------------------------|
B------------------------------------------------------|
G------------------------------------------------------|
D--9999999/12121212121212/14141414141414/16161616161616
A--9999999/12121212121212/14141414141414/16161616161616
E--7777777/10101010101010/12121212121212/14141414141414

(chorus)
All the girls,they stand about but they donít want to dance.  With eyes of steel, they 
at you, I doubt youíll have a chance


e------------------------------------------------------------------|
B------------------------------------------------------------------|
G------------------------------------------------------------------|
D--16-161616161616\14-141414141414\10-101010101010\11-111111111111-|
A--16-161616161616\14-141414141414\10-101010101010\11-111111111111-|
E--14-141414141414\12-121212121212\10-101010101010\9--9 9 9 9 9 9--|

*=where repeat starts
/=slide up
\=slide down
Related for Herro I Rike Rice - All The Girls tab