Guitaretab - guitar tabs
Song name
# A B C D E F G H I J K L M N O P Q R S T U V W X Y Z

Misc Unsigned Bands - Stylish Kids In Riots - Common Stranger tab

-------------------------------------------------------------------------------
			     COMMON STRANGER  Stylish Kids in Riots
-------------------------------------------------------------------------------
Tabbed by: Dave :)
Email: Davegoestohollywood@hotmail.co.uk

Tuning: Standard

Gtr 1:clean
Gtr 2:Octave
Gtr 3: reverb + distortion

INTRO 
e|-9--------------------9-------------|
B|-10-------------------10------------|
G|-11-------------------11------------|
D|------------------------------------|
A|------------------------------------|
E|------------------------------------|

VERSE 1 

e|--9----9--9--9--9--9----7---7-7-7-7-7---5---5-5-5-5-5---7---7-7-7-7-7------|
B|--10---10-10-10-10-10---9---9-9-9-9-9---7---7-7-7-7-7---9---9-9-9-9-9------|
G|--11---11-11-11-11-11---9---9-9-9-9-9---7---7-7-7-7-7---9---9-9-9-9-9------| x2
D|---------------------------------------------------------------------------|
A|---------------------------------------------------------------------------|
E|---------------------------------------------------------------------------|

CHORUS  Gtr 1
[ Tab from: http://www.guitaretab.com/m/misc-unsigned-bands/184868.html ]
e|--9----9--9--9--9--9---4---4-4-4-4-4--5---5-5-5-5-5---7---7-7-7-7-7----|
B|--10---10-10-10-10-10--5---5-5-5-5-5--7---7-7-7-7-7---9---9-9-9-9-9----|
G|--11---11-11-11-11-11--6---6-6-6-6-6--7---7-7-7-7-7---9---9-9-9-9-9----|x4
D|--11---11-11-11-11-11--6---6-6-6-6-6--7---7-7-7-7-7---9---9-9-9-9-9----|
A|--9----9--9--9--9--9---4---4-4-4-4-4--5---5-5-5-5-5---7---7-7-7-7-7----|
E|-----------------------------------------------------------------------|

Gtr 2  comes in third time

e|----9--------7-------5-------7-----|
B|-10---10---9---9---7---7---9---9---|
G|-----------------------------------| x2
D|-----------------------------------|
A|-----------------------------------|
E|-----------------------------------|

VERSE 2  no guitar

SOLO
Gtr3 (Gtr 1 plays chorus)
e|---------9-------12-10-9-------12-10-9---------------------------|
B|-------10----------------10------------10-9-10-10----10-9-10----|
G|---9h11----------------------------------------------------------|
D|-----------------------------------------------------------------|
A|-----------------------------------------------------------------|
E|-----------------------------------------------------------------|

e|------9--------7------5------7--------9-10-12-----12-10-9--------|
B|----10-10-----9-9----7-7----9-9-----10----------10-------10-9----|
G|--11-----11--9---9--7---7--9---9--11----------11-----------------|
D|-----------------------------------------------------------------|
A|-----------------------------------------------------------------|
E|-----------------------------------------------------------------|



End on(clean):
e|------9---------|
B|------10--------|
G|------11--------|
D|------11--------|
A|------9---------|
E|----------------|



ORDER:
INTRO
VERSE 1
CHORUS
VERSE 2 (no Guitar)
CHORUS 
SOLO
Related for Stylish Kids In Riots - Common Stranger tab