Song name
# A B C D E F G H I J K L M N O P Q R S T U V W X Y Z

Misc Unsigned Bands - Break-downdiehard - Ill Give It Time tab

Verse 1 X2

E|----------------------------------------------------|
B|----------------------------------------------------|
G|---9-9-9-9-99---7-7-7-7-77---5-5-5-5-55---7-7-7-7-77|
D|---9-9-9-9-99---7-7-7-7-77---5-5-5-5-55---7-7-7-7-77|
A|---7-7-7-7-77---5-5-5-5-55---3-3-3-3-33---5-5-5-5-55|
E|-00-0-0-0-0---00-0-0-0-0---00-0-0-0-0---00-0-0-0-0--|
   ** * * * *    ** * * * *    ** * * * *    ** * * * *   

Chorus 1 X2

E|-----------------------------------------------------|
B|-----------------------------------------------------|
G|-999999999999-777777777777-555555555555-777777777777-|
D|-999999999999-777777777777-555555555555-777777777777-|
A|-777777777777-555555555555-333333333333-555555555555-|
E|-----------------------------------------------------|

Verse 2 X2

E|-----------------------------------------------------|
B|-----------------------------------------------------|
G|-----------------------------------------------------|
D|-555555555555-777777777777-555555555555-777777777777-|
A|-555555555555-777777777777-555555555555-777777777777-|
E|-777777777777-555555555555-333333333333-555555555555-|
   ************ ************ ************ ************

Chorus 2 X2

E|-----------------------------------------------------|
B|-----------------------------------------------------|
G|-----------------------------------------------------|
D|-555555555555-777777777777-555555555555-777777777777-|
A|-555555555555-777777777777-555555555555-777777777777-|
E|-777777777777-555555555555-333333333333-555555555555-|

Middle Weight X2

E|-----------------------------------------------------|
B|-----------------------------------------------------|
G|---------------------------333333333333--------------|
D|-999999999999-555555555555-333333333333-333333333333-|
A|-999999999999-555555555555-555555555555-333333333333-|
E|-777777777777-333333333333--------------555555555555-|
   ************ ************ ************ ************

Chorus 3 X2

E|-----------------------------------------------------|
B|-----------------------------------------------------|
G|---------------------------333333333333--------------|
D|-999999999999-555555555555-333333333333-333333333333-|
A|-999999999999-555555555555-555555555555-333333333333-|
E|-777777777777-333333333333--------------555555555555-|
Tap to rate this tab
# A B C D E F G H I J K L M N O P Q R S T U V W X Y Z