Song name
# A B C D E F G H I J K L M N O P Q R S T U V W X Y Z

Misc Unsigned Bands - Banda Bostik - Tlatelolco 1968 tab

Esta rola se la dedico a toda la banda de Potrero Viejo Veracruz.
A Yaneli y a toda mi familia.

Intro:
E  [----------------------]            [--------------------[]
B  [----------------------]            [--------------------[]
G  [---4/6--6/8\6-4-------]     x2     [-----4/6----8-6-----[] Fin Intro.
D  [----------------------]            [--------------------[]
A  [---2/4--4/6\4-2-------]            [-----2/4----6-4-----[]
E  [----------------------]            [--------------------[]

Riff 1:
e  [------------------------------------------------[]
b  [------------------------------------------------[]
g  [---6--9--11--9--6--9--11--9--11-9-8-9-8-4-6-----[]  x2
d  [---6--9--11--9--6--9--11--9--11-9-8-9-8-4-6-----[]
a  [------------------------------------------------[]
e  [------------------------------------------------[]

C#5                                    B5                   C#5
Hace ya tiempo que a historia pasó, la gente no lo puede olvidar 
C#5                                  B5                     C#5
En Tlatelolco la sangre corrió de letrados que sabían la verdad. 

Puente:  A5  B5  C#5/B5\C#5 

e  [----------------------------------------------------------II
b  [----5--------7--------9--------12-------14-------14-------II
g  [----7(9)-----9(11)----11(13)---14(16)---16(18)---16(18)---II
d  [----------------------------------------------------------II
a  [----------------------------------------------------------II
e  [----------------------------------------------------------II

C#5                                 B5                C#5
Esa injusticia al país sacudió pero nadie lo pudo evitar
C#5                                       B5                 C#5
las fuerzas armadas el gobierno mando con orden directa de tirar a matar.

(Puente)


Coro:

C#5                A5
Eran letrados y pedían justicia 
E5                    G#5
Todos peleaban por un ideal 
C#5                       A5
pero el gobierno siempre a sido injusto 
E5                         G#5
por protestar los mandó a asesinar.

(Riff 1)

C#5                                  B5                  C#5
Tres luces rojas cruzaron el cielo pero llevaban la muerte por detrás 
C#5                                       B5                     C#5
con guantes blancos cubrieron sus manos para distinguirse al empezar a 

matar.


(Puente)


C#5                                   B5                      C#5
Masacre fue lo que pasó en Tlatelolco hombres y mujeres el gobierno mato,
C#5                                       B5             C#5
mató ilusiones y esperanzas del hombre en vano fue y su ideal se perdió.

Repite el coro y el verso de "tres luces rojas"

Bueno aquí les dejo esta que es mi primer tablatura esta sencilla solo son 
los acordes para acompañarla letra. dudas y/o comentarios mi msn es:
guitar_pro_edu_nl@hotmail.com
Tap to rate this tab
# A B C D E F G H I J K L M N O P Q R S T U V W X Y Z