Song name
# A B C D E F G H I J K L M N O P Q R S T U V W X Y Z

Misc Unsigned Bands - Kill Em All 666 - Diy Wtf tab

Help us improve GuitareTab! Take a short survey!
INTRO:

e|---------------------------------------------------12-12-1212121213131-----|
B|----------------------------------------------88888------------------------|
G|----------------------------------888899990000-----------------------------|
D|-0000000-00000000000000-666666666------------------------------------------|
A|-3333333-44444444444444-666666666------------------------------------------|
E|-1111111-22222222222222-444444444------------------------------------------|

VERSE:

e|---------------------------------------------------------------------------|
B|---------------------------------------------------------------------------|
G|---------------------------------------------------------------------------|
D|---------------------------------------------------------------------------|
A|---------------------------------------------------------------------------|
E|-0-22222222-66665555-0-22222222-66665555-0-22222222-77665544332211---------|

CHORUS LEAD PART:

e|-0-2-3-5-7-9---------------------------------------------------------------|
B|-------------5-6-8-78-6666-------------------------------------------------|
G|---------------------------5555--------------------------------------------|
D|--------------------------------11111----3333------------------------------|
A|-------------------------------------5555----------------------------------|
E|----------------------------------------------88888888888888888------------|

CHORUS RHYTHM PART:

e|---------------------------------------------------------------------------|
B|---------------------------------------------------------------------------|
G|---------------------------------------------------------------------------|
D|------------------------------------------------------5b-------------------|
A|------------------------------------------------6-6-6----------------------|
E|-0-0-0-1-0-0-0-0-0-0-1-0-0-0-2222-4444-66666666----------------------------|

BRIDGE LEAD PART:

e|---------------------------------------------------------------------------|
B|-----------------------------------------------7---------------------------|
G|---------------------------------------------4-----------------------------|
D|-----------------------------------------333-----9-------------------------|
A|-----7-----7-8-----5-----5-7-5-7-----222----------8b-----------------------|
E|-000---000-----000---000---------000---------------------------------------|

BRIDGE RHYTHM PART:

e|---------------------------------------------------------------------------|
B|---------------------------------------------------------------------------|
G|---------------------------------------------------------------------------|
D|---------------------------------------------------------------------------|
A|---------------------------------------------------8b----------------------|
E|-0000xxxxxxxxxxxxxxxxxxxxxxxxxxxxxxxxxxxxxxxxxxxxx0------------------------|

OUTRO LEAD PART:

e|---------------------------------------------------------------------------|
B|---------------------------------------------------------------------------|
G|---------------------------------------------------------------------------|
D|--------------------------33330000-----------------------------------------|
A|-----------------77776666----------------------------8b--------------------|
E|-0-0-0-0-0-0-0-0-------------------5b\\\\\\\\////////----------------------|

OUTRO RHYTHM PART:

e|---------------------------------------------------------------------------|
B|---------------------------------------------------------------------------|
G|---------------------------------------------------------------------------|
D|--------------------------33338888-------------------6b--------------------|
A|-----------------77776666----------4b////////\\\\\\\\----------------------|
E|-000000000000000-----------------------------------------------------------|


| /  slide up
| \  slide down
| h  hammer-on
| p  pull-off
| ~  vibrato
| +  harmonic
| x  Mute note
===============================================================================
Related for Kill Em All 666 - Diy Wtf tab