Song name
# A B C D E F G H I J K L M N O P Q R S T U V W X Y Z

Misc Unsigned Bands - Crisis Journey - Ride The Storm tab

---------------------------------------|
---------------------------------------|
---------------------------------------|
-----------------------------4---------|--X4
---5---5---5-7-----7---7---7-----------|
-5---5---5-------5---5---5-------------|

-----------------------------------|
-----------------------------------|
-----------------------------------|
-----------------5-5-5-4-4-4-4-4---|
-7-7-7-7-5-5-5-5-3-3-3-2-2-2-2-2---|
-5-5-5-5-3-3-3-3-------------------|
                                   |--X2
-----------------------------------|
-----------------------------------|
-----------------------------------|
-----------------5-5-5-7-7-7-7-7---|
-7-7-7-7-5-5-5-5-3-3-3-5-5-5-5-5---|
-5-5-5-5-3-3-3-3-------------------|

--------------------------------------|
--------------------------------------|
--------------------------------------|
---------7-7-7-7---------9-9-9-9------|--X8
-7-7-7-7-5-5-5-5-7-7-7-7-7-7-7-7------|
-5-5-5-5---------5-5-5-5--------------|

-----------------------------------|
-----------------------------------|
-----------------------------------|
-----------------5-5-5-4-4-4-4-4---|
-7-7-7-7-5-5-5-5-3-3-3-2-2-2-2-2---|
-5-5-5-5-3-3-3-3-------------------|
                                   |--X2
-----------------------------------|
-----------------------------------|
-----------------------------------|
-----------------5-5-5-7-7-7-7-7---|
-7-7-7-7-5-5-5-5-3-3-3-5-5-5-5-5---|
-5-5-5-5-3-3-3-3-------------------|

-------------------------------------------------|
-------------------------------------------------|
-------------------------------------------------|
--------------------7-7-7-7---------9-9-9-9------|--X4
-7----------7-7-7-7-5-5-5-5-7-7-7-7-7-7-7-7------|
-5----------5-5-5-5---------5-5-5-5--------------|

-----------------------------------|
-----------------------------------|
-----------------------------------|
-----------------5-5-5-4-4-4-4-4---|
-7-7-7-7-5-5-5-5-3-3-3-2-2-2-2-2---|
-5-5-5-5-3-3-3-3-------------------|
                                   |--X2
-----------------------------------|
-----------------------------------|
-----------------------------------|
-----------------5-5-5-7-7-7-7-7---|
-7-7-7-7-5-5-5-5-3-3-3-5-5-5-5-5---|
-5-5-5-5-3-3-3-3-------------------|

-----------------------------------|
-----------------------------------|
-----------------------------------|
---4---4---6---6---9---9---9---9---|--X2
-2---2---4---4---7---7---7---7-----|
-----------------------------------|
                                   
-----------------------------------|
-----------------------------------|
-----------------------------------|
-4-4-4-4-6-6-6-6-9-9-9-9-9-9-9-9---|
-2-2-2-2-4-4-4-4-7-7-7-7-7-7-7-7---|--X2
-----------------------------------|

-----------------------------------------|
-----------------------------------------|
-----------------------------------------|
-6-6-6-6-8-8-8-8-11-11-11-11-11-11-11-11-|
-4-4-4-4-6-6-6-6-9--9--9--9--9--9--9--9--|
-----------------------------------------|

---------------------------------|
---------------------------------|
---------------------------------|
-6-6-6-6-8-8-8-8-11-11-11-11-11--|
-4-4-4-4-6-6-6-6--9--9--9--9--9--|
---------------------------------|

-----------------------------------|
-----------------------------------|
-----------------------------------|
-----------------5-5-5-4-4-4-4-4---|
-7-7-7-7-5-5-5-5-3-3-3-2-2-2-2-2---|
-5-5-5-5-3-3-3-3-------------------|
                                   |--X4
-----------------------------------|
-----------------------------------|
-----------------------------------|
-----------------5-5-5-7-7-7-7-7---|
-7-7-7-7-5-5-5-5-3-3-3-5-5-5-5-5---|
-5-5-5-5-3-3-3-3-------------------|

---
---
---
---
-7-
-5-

Think the bridge may be a bit wrong, but it sounds pretty much right 
More CJ tabs coming soon :D
email me if ya got requests - fredchandler@btinternet.com
Tap to rate this tab
# A B C D E F G H I J K L M N O P Q R S T U V W X Y Z