Song name
# A B C D E F G H I J K L M N O P Q R S T U V W X Y Z

Misc Unsigned Bands - Soulscarred - Personal Holocaust tab

SoulScarred - Personal Holocaust

Tuning: D

d|---------------------------------------------------------------------------|
A|---------------------------------------------------------------------------|
F|---------------------------------------------------------------------------|
C|-------4-------5-------4---------------4-------5-------4---2---4-----------|
G|---------------------------4---5-------------------------------------------|
D|-2-0-2---2-0-2---2-0-2---2---2---2-0-2---2-0-2---2-0-2---2---2-------------|


d|---------------------------------------------------------------------------|
A|---------------------------------------------------------------------------|
F|--------------------------------------------------------------------------.|
C|-------4-------5-------2---------------4---------4-2-4-7-6-7--------------.|
G|---------------------------2---4-----------------2-0-2-5-4-5---------------|
D|-2-0-2---2-0-2---2-0-2---2---2---2-0-2---2-0-2-0---------------------------|


Post Chorus
d|---------------------------------------------------------------------------|
A|---------------------------------------------------------------------------|
F|---------------------------------------------------------------------------|
C|---------------------------------------------------------------------------|
G|-----10---9---101010-12---10---999-10-----9---7---999-10---9---777-9-------|
D|-0-0----0---0-----------0----0--------7-7---7---7--------7---7-------------|



d|---------------------------------------------------------------------------|
A|---------------------------------------------------------------------------|
F|---------------------------------------------------------------------------|
C|---------------------------------------------------------------------------|
G|-----10---9---101010-12---10---999-10-----777-----999-----101010------121212
D|-0-0----0---0-----------0----0--------5-5-----7-7-----8-8--------10-10-----|


Verse 1

d|---------------------------------------------------------------------------|
A|---------------------------------------------------------------------------|
F|---------------------------------------------------------------------------|
C|---------------6-----------------------------6-----------------------------|
G|-----6---4---6-----6---6-44-6------6---4---6-----6---6-44-6----------------|
D|-4-4---4---4-----4---4---------4-4---4---4-----4---4-----------------------|



d|---------------------------------------------------------------------------|
A|---------------------------------------------------------------------------|
F|--------------------------------------------------------------------------.|
C|-----------------3---------------------------------3----------------------.|
G|-----3---2---3-------3---2/3\2---2-----3---2---3-------3---2h3h2---2-------|
D|-1-1---1---1---1---1---1-------3---1-1---1---1---1---1---1-------3---------|


Ref:

d|---------------------------------------------------------------------------|
A|---------------------------------------------------------------------------|
F|---------------------------------------------------------------------------|
C|-----------------------------------------------------------------4-4-----4-|
G|-6-6-6-----6-6-6-6-6-6-6-4-4-4-4-4-4---------------6-6-6-6-6-6-6-5-5-----5-|
D|-3h4-4-4-4-3h4-3-3-3-3-3-2-2-2-2-2-2-222-2-222-222-3h4-4-4-4-3-4-5-5-5-5-5-|
         m m    m    m m  m    m m  m  mmm m mmm mmm       m m         m m

d|---------------------------------------------------------------------------|
A|---------------------------------------------------------------------------|
F|----------------------\----------------------------------------------------|
C|---4-4-----4---5-5---\----9-----9---9---9-----9---7---7-----7---7----------|
G|---6-6-----6---7-7--\---2-7-----7---6---6-----6---5---5-----5---4--444-4---|
D|-5-----0-0---0---0-\----0---0-0---0-------0-0---0-------0-0---0------------|
   m     m m   m              m m   m       m m   m       m m   m    mmm m   


d|---------------------------------------------------------------------------|
A|---------------------------------------------------------------------------|
F|---------------------------------------------------------------------------|
C|---------9-9-----9--------------------------------------------10-9-7-------|
G|-444-444-7-7-----7---12--12---10---9---------------------------------10-9--|
D|---------0-0-0-0---0-8---8--8----8---101010101010101010101010--------------|
   mmm mmm     m m   m        m    m   

Post Chorus
Verse 2
REF
Post Chorus

Post Chorus Harm
d|---------------------------------------------------------------------------|
A|---------------------------------------------------------------------------|
F|---------------------------------------------------------------------------|
C|---------------------------------------------------------------------------|
G|-----10---9-101010-12---10---999-10-----10---9---777-9---10---999-7--------|
D|-0-0----0-------------0----0--------7-7----7---7-------7----7--------------|


Bridge
d|---------------------------------------------------------------------------|
A|---------------------------------------------------------------------------|
F|---------------------------------------------------------------------------|
C|---------------------------------------------------------------------------|
G|---------3--------3----------3--------3------------------------------------|
D|-555555555-55555555--555555555-55555555-0-0-0-0-0-0-0--0-0-0-0-0-0-0-------|
   P.M


d|-------------------------------|-------------------------------------------|
A|-------------------------------|-------------------------------------------|
F|------------------------------.|-------------------------------------------|
C|------------------------------.|-2-2-2222----------------------------------|
G|-------------------------------|-2-2-2222----------------------------------|
D|-0-0-0-0-0-0-0--0-0-0-0-0-0-0--|-0-0-0000----------------------------------|
   P.M
Rythm Solo
d|---------------------------------------------------------------------------|
A|---------------------------------------------------------------------------|
F|---------------------------------------------------------------------------|
C|---------------------------------------------------------------------------|
G|-22-22-22-22--22-22-22-22-22-2h3--33-33--33-33-33-33-33-3p2----------------|
D|-00-00-00-00--00-00-00-00-00-0h1--11-11--11-11-11-11-11-1p0----------------|
   P.M

Solo git1
d|-7p0-----7p0-----7p0-7p0---7p0-----7p0------7p0-7p0---8p0------8p0---------|
A|----8-7-0---8-7-0-------8-7---8-7-0---8-7-0--------8-7---10-8-0---10-8-0---|
F|---------------------------------------------------------------------------|
C|---------------------------------------------------------------------------|
G|---------------------------------------------------------------------------|
D|---------------------------------------------------------------------------|

d|-8p0-8p0----8p0-----8p0-----8p0-8p0----------------------------------------|
A|--------10-8---10-8-----10-8-------10-8------------------------------------|
F|--------------------------------------------------------------------------.|
C|--------------------------------------------------------------------------.|
G|---------------------------------------------------------------------------|
D|---------------------------------------------------------------------------|
Solo git2
d|----------------------------10p0-------10p0-------10p0-10p0----------------|
A|-8p0-----8p0-----8p0-8p0--------12-10-0----12-10-0---------12-10-----------|
F|----9-7-0---9-7-0--------9-7-----------------------------------------------|
C|---------------------------------------------------------------------------|
G|---------------------------------------------------------------------------|
D|---------------------------------------------------------------------------|

d|----------------------------------12p0-------12p0-------12p0-12p0----------|
A|-10p0------10p0------10p0-10p0--------13-12-0----13-12-0---------13-12-----|
F|-----11-9-0----11-9-0---------11-9----------------------------------------.|
C|--------------------------------------------------------------------------.|
G|---------------------------------------------------------------------------|
D|---------------------------------------------------------------------------|

Intro * 1,5
Ref*2
Prechorus*2

------------------------------------------------------------------------------
Tap to rate this tab
# A B C D E F G H I J K L M N O P Q R S T U V W X Y Z