Song name
# A B C D E F G H I J K L M N O P Q R S T U V W X Y Z

Misc Unsigned Bands - Soulscarred - Give In To Your Madness tab

SoulScarred - Give In To Your Madness

Tuning: D

Guitar 1
d|---------------------------------------------------------------------------|
A|---------------------------------------------------------------------------|
F|--------------------------------------------------------------------------.|
C|------7---5---3-------7---9----10---------7---5---3-----7---------10------.|
G|----7---8---7---5---7---8---10----12----7---8---7-----7---8-2-2-2-8--------|
D|-000-0-0-0-0-0-0-000-0-0-0-0--0--0---000-0-0-0-0-0-000-0-0--0-0-0----------|


Guitar 2
d|-------------------------------------|-------------------------------------|
A|-------------------------------------|-------------------------------------|
F|------------------------------------.|-------------------------------------|
C|------------------------------------.|-------------------------------------|
G|-222-------------222-----------------|-2-2-2-8-----------------------------|
D|-000-------------000-----------------|-0-0-0-6-----------------------------|


VERSE
d|-----------------------------------------------|---------------|------------|
A|-----------------------------------------------|---------------|------------|
F|----------------------------------------------.|---------------|------------|
C|-----------3------6----6---6/5-----------3----.|---------------|------------|
G|-8/7---3---1--3---4----4---4/3-8/7---3---1---3-|---5---4---5---|-2-222-2-222|
D|-6/5-0-1-0--0-1-0-4-00-4-4-4/3-6/5-0-1-0---0-1-|-0-300-200-300-|-0-000-0-000|



Pre 1
d|---------------------------------------------------------------------------|
A|---------------------------------------------------------------------------|
F|---------------------------------------------------------------------------|
C|-2-----3-----2-----3-----2-----2-----3-----2-------------------------------|
G|-2-----2-----2-----1-----2-3/5-2-----1-----2-5h7---7h8---5h7---------------|
D|-0-0-0---0-0-0-0-0---0-0-0-1/3-0-0-0---0-0-0-----0-----0-------------------|



d|---------------------------------------------------------------------------|
A|---------------------------------------------------------------------------|
F|---------------------------------------------------------------------------|
C|-2-----3-----2-----3-----2-----2-----3-----2-------------------------------|
G|-2-----2-----2-----1-----2-3/5-2-----1-----2-------------------------------|
D|-0-0-0---0-0-0-0-0---0-0-0-1/3-0-0-0---0-0-0-------------------------------|


VERSE 2

REF:
d|---------------------------------------------------------------------------|
A|---------------------------------------------------------------------------|
F|---------------------------------------------------------------------------|
C|---------------------------------------------------------------------------|
G|--3-3-3333333333333333333-3-3-33333333333333333333----333333333333333333333|
D|-/5-5-5555555555555555555-1-1-11111111111111111111-/5-555555555555555555555|


  
                              FILL:
			      (Guit2)	
d|--------------------------|------------------------------------------------|
A|--------------------------|------------------------------------------------|
F|-------------------------.|------------------------------------------------|
C|-3-3-33333333333333333333.|--------3---------------------------------------|
G|-5-5-55555555555555555555-|--8-7-3-1-3-6-----------------------------------|
D|--------------------------|--6-5-1---1-4-----------------------------------|

VERSE 3


PRE2:
d|---------------------------------------------------------------------------|
A|---------------------------------------------------------------------------|
F|---------------------------------------------------------------------------|
C|-2-----3-----2-----3-----2-------------------------------------------------|
G|-2-----2-----2-----1-----2-3/5-8/7---8/7---8/7---8/7---5-5-5-5-------------|
D|-0-0-0---0-0-0-0-0---0-0-0-1/3-6/5-0-6/5-0-6/5-0-6/5-0-3-3-3-3-------------|

d|---------------------------------------------------------------|------------|
A|---------------------------------------------------------------|------------|
F|---------------------------------------------------------------|------------|
C|-2-----3-----2-----3-----2-------------------------------------|------------|
G|-2-----2-----2-----1-----2-3/5-8/7-8/7---8/7---8/7---8/7---5-5-|-5----------|
D|-0-0-0---0-0-0-0-0---0-0-0-1/3-6/5-6/5-0-6/5-0-6/5-0-6/5-0-3-3-|-3--(0utro)-|




REF 2


Midt:
Git 1
d|---------------------------------------------------------------------------|
A|---------------------------------------------------------------------------|
F|--------------------------------------------------------------------------.|
C|--------------------------------------------------------------------------.|
G|-5-7---7-8---5-7-5-7---7-8---5-7-5h7---7-8---5h7-5-7---7-8---5-7-5h7-------|
D|-----0-----0---------0-----0-----5---5-----5-5-------5-----5-----0---0-----|


Git 2
d|---------------------------------------------------------------------------|
A|---------------------------------------------------------------------------|
F|---------------------------------------------------------------------------|
C|-2-------------------------------7-------------------------------2---------|
G|-2-------------------------------7-------------------------------2---------|
D|-0-------------------------------5-------------------------------0---------|



d|---------------------------------------------------------------------------|
A|---------------------------------------------------------------------------|
F|---------------------------------------------------------------------------|
C|---------------------------------------------------------------------------|
G|-555-555-555-555-333-333-333-333-22222222-22-22-77777777-77-77-------------|
D|-333-333-333-333-111-111-111-111-00000000-00-00-55555555-55-55-------------|



d|---------------------------------------------------------------------------|
A|---------------------------------------------------------------------------|
F|---------------------------------------------------------------------------|
C|--------------------------------666-666-666-666----------------------------|
G|-22222222-22-22-555-555-555-555-777-777-777-777----------------------------|
D|-00000000-00-00-333-333-333-333--------------------------------------------|



d|---------------------------------------------------------------------------|
A|---------------------------------------------------------------------------|
F|---------2-------2---------------------------------------------------------|
C|-222222222-2222222---------------------------------------------------------|
G|-000000000-0000000-0h1p0----------2-------2--------------------------------|
D|------------------------1-000000000-0000000-0h2h3--------------------------|

Guitar 1
d|---------------------------------------------------------------------------|
A|---------------------------------------------------------------------------|
F|---------------------------------------------------------------------------|
C|---------------------------------------------------------------------------|
G|-5-7---7-8---5-7-5-7---7-8---5-7-5h7---7-8---5h7-5-7---7-8---5-7-5h7-------|
D|-----0-----0---------0-----0-----5---5-----5-5-------5-----5-----0---0-----|
Guitar 2
d|---------------------------------------------------------------------------|
A|---------------------------------------------------------------------------|
F|---------------------------------7/-9---5------7/9----5--------------------|
C|------7/-9---5------7/9----5-----9/10---7------9/10---7--------------------|
G|------9/10---7------9/10---7-000------0---0000------0----------------------|
D|--000------0---0000------0-------------------------------------------------|

d|---------------------------------------------------------------------------|
A|---------------------------------------------------------------------------|
F|---------------------------------------------------------------------------|
C|------7/-9---5------7/9----5-----------------------------------------------|
G|------9/10---7------9/10---7--555-555-555-555-333-333-333-333--------------|
D|--000------0---0000------0----333-333-333-333-111-111-111-111--------------|

Guitar 1 (Intro)
Guitar 2:
d|---------------------------------|---------------------------------------/-|
A|---------------------------------|---------------------------------------/-|
F|--------------------------------.|---------------------------------------/-|
C|--------------------------------.|--------------------------------2-2-2-3/-|
G|---------------------------------|--------------------------------2-2-2-3/-|
D|-000-0-0-0-0-0-0-0-0-0-0-0-0-0-0-|000-0-0-0-0-0-0-0-0-0-0-0-0-0-0-0-0-0-1/-|

Guitar 1:
d|---------------------------------------------------------------------------|
A|---------------------------------------------------------------------------|
F|---------------------------------------------------------------------------|
C|---------------------------------------------------------------------------|
G|-10p7-7777-10p7-7777-10p7-77-9p5-5555-9p5-5555-9p5-55-7p3-3333-7p3-3333----|
D|---------------------------------------------------------------------------|

d|------------------------------------|--------------------------------------|
A|------------------------------------|--------------------------------------|
F|-----------------------------------.|--------------------------------------|
C|-----------------------------------.|--------------------------------------|
G|-7p3-33-5p2-22-5p2-22-9p5-55-9p5-55-|--------------------------------------|
D|------------------------------------|--------------------------------------|

Guitar 2:
d|---------------------------------------------------------------------------|
A|---------------------------------------------------------------------------|
F|---------------------------------------------------------------------------|
C|-9p5-5555-9p5-5555-9p5-55-7p4-444-7p4-444-7p4-44-10p7-7777-10p7-7777-------|
G|---------------------------------------------------------------------------|
D|---------------------------------------------------------------------------|

d|----------------------------------------|----------------------------------|
A|----------------------------------------|----------------------------------|
F|---------------------------------------.|----------------------------------|
C|-10p7-77-12p9-99-12p9-99-7p4-44-7p4-44-.|----------------------------------|
G|----------------------------------------|----------------------------------|
D|----------------------------------------|----------------------------------|

REF 3
Outro (PRE2)
Tap to rate this tab
# A B C D E F G H I J K L M N O P Q R S T U V W X Y Z