Song name
# A B C D E F G H I J K L M N O P Q R S T U V W X Y Z

Misc Unsigned Bands - Society Hill - Farts Revenge tab

Tuning:EADGBe

Riff 1:

e|-2-----2-3-----3-5-----5-7-----7-9------9--10-------10-12-------12-------|
B|---3-------3-------3-------8-------10---------12----------14-------------|
G|-----2-------2-------2-------7--------9----------11----------13----------|
D|-0-------0-------0-------0-------0---------0-----------0-----------------|
A|-------------------------------------------------------------------------|
E|-------------------------------------------------------------------------|

e|-14--------14-14-------14-12-------12-10-------10-9------9-7-----7-5-----5|
B|----15-----------15----------14----------12---------10-------8-------3----|
G|-------14-----------14----------13----------11---------9-------7-------2--|
D|-0------------0-----------0-----------0-----------0--------0-------0------|
A|--------------------------------------------------------------------------|
E|--------------------------------------------------------------------------|

e|-3-----3-2-----2---------------------------------------------------------|
B|---3-------3-------------------------------------------------------------|
G|-----2-------2-----------------------------------------------------------|
D|-0-------0---------------------------------------------------------------|
A|-------------------------------------------------------------------------|
E|-------------------------------------------------------------------------|

Riff 2:

e|-------------------------------------------------------------------------|
B|-3-------3-------3-------3-------3-------3-------3-------------5---------|
G|---0---0---0---0---0---0---2---2---0---0---0---0---0---0-----0-----------|
D|-----2-------0-------3-------2-------2-------0-------3-----5-------------|
A|-3-------2-------1-------0-------3-------2-------1-------3---------------|
E|-------------------------------------------------------------------------|

Bridge: Play first half of riff 1 then,

e|-14------------12------------10-----------9--------7-------5-------3----|
B|----15-------14--14--------12--12-------10-10-----8-8-----3-3-----3-3---|
G|-------14--13------13-13-11------11-11-9-----9-9-7---7-7-2---2-2-2--2-2-|
D|-0--------0----------0--0----------0--0-------0-0-----0-0-----0-0----0--|
A|------------------------------------------------------------------------|
E|------------------------------------------------------------------------|

e|----2------------------b--t---s-------------------0---------------------|
B|---3-3-----------------e--w---t-------------------3---------------------|
G|--2---2-2--------------g--e----r------------------2---------------------|
D|-0-----0---------------i---l-----i-----------------0--------------------|
A|-----------------------n--v------n----------------0---------------------|
E|--------------------------e-------g-------------------------------------|

Riff 3:
strum freely;
e|-3----3--------2--3-2-0-2----3----3----2---2-3-5---------------------|
B|-3----3----3---3--3-3-3-3----3----3----3---3-3-3---------------------|
G|-0----0----2---2--2-2-2-2----0----0----2---2-2-2---------------------|
D|-2----0----4---0--0-0-0-0----2----0----0---0-0-0---------------------|
A|-3----2----5---0--0-0-0-0----3----2----0---0-0-0---------------------|
E|------3---------------------------3----------------------------------|

Riff 4

e|---------------1--------------------------------1--------0--3--|
B|-------1-----1---------1----------------1-----1----------1--3--|
G|-----2-----2---------0---------0------2-----2---------0--2--0--|repeat
D|---2-----3---------2---------0------2-----3---------2----2--0--|
A|-0---------------3---------2------0---------------3------0--2--|
E|-------------------------3----------------------------------3--|

e|---------------------------------------------------------------|
B|-------1-------------------------------------------------------|
G|-----2-----2---------------------------------------------------|
D|---2-----3-----------------------------------------------------|
A|-0-----------0-2-----------------------------------------------|
E|---------------------------------------------------------------|

Bridge 2:

e|---------------------------3-s-f------------------------3---2---------|
B|-3---3-1-0---3-1-0--3-1-0--3-t-r--3-1-0--3-1-0--3-1-0---3---3---------|
G|-0---0-0-0---0-0-0--0-0-0--0-r-e--0-0-0--0-0-0--0-0-0---0---2---------|
D|-2---2-2-2---2-2-2--2-2-2--0-u-e--2-2-2--2-2-2--2-2-2---0---0---------|
A|-3---3-3-3---3-3-3--3-3-3--2-m-l--3-3-3--3-3-3--3-3-3---2---0---------|
E|---------------------------3---y------------------------3-------------|

Guitar Solo Backing-Chords

e|-3----3----3------------------------------------------------------------|
B|-1----1----3------------------------------------------------------------|
G|-2----0----0------------------------------------------------------------|
D|-3----2----0------------------------------------------------------------|
A|------3----2------------------------------------------------------------|
E|-----------3------------------------------------------------------------|

Distortion Riff

e|---------------------------------------------------------------------|
B|---------------------------------------------------------------------|
G|-------5-------------------------------------------------------------|
D|--3----5----5--------------------------------------------------------|
A|--3----3----5--------------------------------------------------------|
E|--1---------3--------------------------------------------------------|

Not on Original Recording:
Outro:
Strum Freely, slow down, 12 string clean
e|--1-1--3-----0-0--3-----3~~~~~--------------------------------------|
B|--1-1--1-----1-1--1-----3~~~~~--------------------------------------|
G|--2-2--2-----0-0--0-----0~~~~~--------------------------------------|
D|--3-3--3-----2-2--2-----0~~~~~--------------------------------------|
A|-------------3-3--3-----2~~~~~--------------------------------------|
E|------------------------3~~~~~--------------------------------------|

| /  slide up
| \  slide down
| h  hammer-on
| p  pull-off
| ~  vibrato
| +  harmonic
| x  Mute note
===============================================================================
Tap to rate this tab
# A B C D E F G H I J K L M N O P Q R S T U V W X Y Z