Guitaretab - guitar tabs
Song name
# A B C D E F G H I J K L M N O P Q R S T U V W X Y Z

Misc Unsigned Bands - Kris Mark - Who Is She tab

Tabbed By: Colin.Wu

I saw the other tab on the site, and (no offense) was just terrible. 
I figured this out on my own by ear. so if there's something wrong, sorry!
 
Basically just repeat this and there ya go.
This is the basic rhythm of the song
e|--------------------------------------------------------|
B|------7-7h9------4-4(h5)----7-7-------5-5---------------|
G|------8-8--------4-4--------6-6-------4-4---------------|
D|------9-9--------4-4--------8-8-------6-6---------------|
A|---7----7----4-----4-----6----6----4----4---------------|
E|--------------------------------------------------------|

And that's it!  Although, there are some parts of the song which are different. 
If you listen to the song you can hear it. I also tabbed it out below.

During the Pre-Chorus, Kris Mark switches it up and plays this instead
Listen to the song and you'll hear it
e|--------------|------------------|------------------------|
B|-----7~-------|---5--5~----------|---------7~-------------|
G|-----6~-------|---4--4~----------|---------6~-------------|
D|-----8~-------|---6--6~----------|---------8~-------------|
A|-----6~-------|---4--4~----------|---------6~-------------|
E|--------------|------------------|------------------------|
[ Tab from: http://www.guitaretab.com/m/misc-unsigned-bands/185092.html ]
Kris Mark also plays a SMALL variation in the Chorus (Or anywhere else).
It's exactly the same as the what he usually plays,
but instead it goes like this
e|-------------------------------7h9----------------------------|
B|------7-7-------4-4h5-------7-7----7------------5-5-----------|
G|------8-8-------4-4---------6-6------6----------4-4-----------|
D|------9-9-------4-4---------8-8--------8--------6-6-----------|
A|---7----7----4----4------6----6--------------4----4-----------|
E|--------------------------------------------------------------| 
Or sometimes;
e|-------------------------------7h9----------------------------|
B|------7-7h9------4-4h5------7-7----7-----------5-5-5h7--------|
G|------8-8--------4-4--------6-6------6---------4-4-----4------|
D|------9-9--------4-4--------8-8--------8-------6-6-------6----|
A|---7----7-----4----4-----6----6-------------4----4---------4--|
E|--------------------------------------------------------------|

Another Variation which is heard in the Rap part of the song: 
e|---------------------|---------------------------|
B|---7-7----7--6--5~---|----4-4----4--3--2~--------|
G|---8-8----6--5--4~---|----4-4----4--3--2~--------|
D|---9-9----8--7--6~---|----4-4----4--3--2~--------|
A|---7-7----6--5--4~---|----4-4----4--3--2~--------|
E|---------------------|---------------------------|

You can switch up the each variation, mash them up, or whatever.
Either way it sounds correct. Or well..about 99% accurate. Haha
There are many other tiny variations in the song, but if you listen
carefully these are most distinct.
Pretty much follow the rhythm and put a spin on it and you'll get Kris Mark's song!
Enjoy.
Related for Kris Mark - Who Is She tab
Advertisement will be closed in 10 seconds