Song name
# A B C D E F G H I J K L M N O P Q R S T U V W X Y Z

Misc Unsigned Bands - Set It Off - I Promise tab

-----------------------------------------------------------------------------
			     I PROMISE - Set It Off
-----------------------------------------------------------------------------
Tabbed by: Halie :]
Email: haliehester@yahoo.com

Tuning: Standard;
Capo on 2nd fret.


This is my first tab. And the first S!O tab :]
This is how you play it if you don't do the picking part, just strumming.



Intro/Verse:
e|----------------|
B|----------------|
G|-1--4--2--6--4--|
D|-2--4--2--6--4--|
A|-2--2-----4--2--|
E|----------------| 

Pre-Chorus:
"But I'll wait for you..."
e|-------|
B|-------|
G|--6--7-|
D|--6--7-|
A|--4--5-|
E|-------|


Chorus:
"Because I'm not over you.."
e|-------------|
B|-------------|
G|-1--2--6--4--|
D|-2--2--6--4--|
A|-2-----4--2--|
E|-------------|

Verse:
"I keep telling myself..."
e|----------------|
B|----------------|
G|-1--4--2--6--4--|
D|-2--4--2--6--4--|
A|-2--2-----4--2--|
E|----------------|

Pre-Chorus:
"But I'll wait for you..."
e|-------|
B|-------|
G|--6--7-|
D|--6--7-|
A|--4--5-|
E|-------|

Chorus:
"Because I'm not over you.."
e|-------------|
B|-------------|
G|-1--2--6--4--|
D|-2--2--6--4--|
A|-2-----4--2--|
E|-------------|

Bridge:
"My love.."
e|-------------|
B|-------------|
G|-2--4--2--4--|
D|-2--4--2--4--|
A|----2-----2--|
E|-------------|

"And I should know better.."
e|-------------|
B|-3--5--3--5--|
G|-4--6--4--6--|
D|-4--6--4--6--|
A|-2--4--2--4--|
E|-------------|


Chorus:
"Because I'm not over you.."
e|-------------|
B|-------------|
G|-1--2--6--4--|
D|-2--2--6--4--|
A|-2-----4--2--|
E|-------------|
*on the last time, only strum each chord once.


Tap to rate this tab
# A B C D E F G H I J K L M N O P Q R S T U V W X Y Z