Song name
# A B C D E F G H I J K L M N O P Q R S T U V W X Y Z

Misc Unsigned Bands - Travis Mashburn - Twonite tab

Two-Nite                                       


                                                                 Travis Mashburn
Main Guitar



     Intro                                                  
     E     E  E  E  E  E  E  E     E  E  E  E  E  E  E  E   
E||-----------------------------|--------------------------|
B||-----------------------------|--------------------------|
G||-----------------------3--2--|--------------------2-----|
D||--2-----2--2--2--2--2--------|--2--2--2--2--2--3--------|
A||-----------------------------|--------------------------|
E||-----------------------------|--------------------------|


  E  E  E  E  E  E  E  E     E  E  E  E  E  E  E  E   
--------------------------|--------------------------|
--------------------------|--------------------------|
--------------------3--2--|--------------------2-----|
--2--2--2--2--2--2--------|--2--2--2--2--2--3--------|
--------------------------|--------------------------|
--------------------------|--------------------------|


  Verse 1                                                  
  E       E  E  E  E  E  E  E     E  E  E  E  E  E  E  E   
-------------------------------|--------------------------|
-------------------------------|--------------------------|
-------------------------3--2--|--------------------2-----|
--2-------2--2--2--2--2--------|--2--2--2--2--2--3--------|
-------------------------------|--------------------------|
-------------------------------|--------------------------|


  E  E  E  E  E  E  E  E     E  E  E  E  E  E  E  E   
--------------------------|--------------------------|
--------------------------|--------------------------|
--------------------3--2--|--------------------2-----|
--2--2--2--2--2--2--------|--2--2--2--2--2--3--------|
--------------------------|--------------------------|
--------------------------|--------------------------|


  E  E  E  E  E  E  E  E     E  E  E  E  E  E  E  E   
--------------------------|--------------------------|
--------------------------|--------------------------|
--------------------3--2--|--------------------2-----|
--2--2--2--2--2--2--------|--2--2--2--2--2--3--------|
--------------------------|--------------------------|
--------------------------|--------------------------|


  E  E  E  E  E  E  E  E     E  E  E  E  E  E  E  E   
--------------------------|--------------------------|
--------------------------|--------------------------|
--------------------3--2--|--------------------2-----|
--2--2--2--2--2--2--------|--2--2--2--2--2--3--------|
--------------------------|--------------------------|
--------------------------|--------------------------|


  Chorus                                                  
  C      C  C  C  C  C  C  C     B  B  B  B  B  B  B  B   
  E      E  E  E  E  E  E  E     E  E  E  E  E  E  E  E   
--0------0--0--0--0--0--0--0--|--2--2--2--2--2--2--2--2--|
--1------1--1--1--1--1--1--1--|--4--4--4--4--4--4--4--4--|
--0------0--0--0--0--0--0--0--|--4--4--4--4--4--4--4--4--|
--2------2--2--2--2--2--2--2--|--4--4--4--4--4--4--4--4--|
--3------3--3--3--3--3--3--3--|--2--2--2--2--2--2--2--2--|
------------------------------|--------------------------|


  D  D  D  D  D  D  D  D     A  A  A  A  A  A  A  A   
  E  E  E  E  E  E  E  E     E  E  E  E  E  E  E  E   
--2--2--2--2--2--2--2--2--|--0--0--0--0--0--0--0--0--|
--3--3--3--3--3--3--3--3--|--2--2--2--2--2--2--2--2--|
--2--2--2--2--2--2--2--2--|--2--2--2--2--2--2--2--2--|
--0--0--0--0--0--0--0--0--|--2--2--2--2--2--2--2--2--|
--------------------------|--0--0--0--0--0--0--0--0--|
--------------------------|--------------------------|


  C  C  C  C  C  C  C  C     B  B  B  B  B  B  B  B   
  E  E  E  E  E  E  E  E     E  E  E  E  E  E  E  E   
--0--0--0--0--0--0--0--0--|--2--2--2--2--2--2--2--2--|
--1--1--1--1--1--1--1--1--|--4--4--4--4--4--4--4--4--|
--0--0--0--0--0--0--0--0--|--4--4--4--4--4--4--4--4--|
--2--2--2--2--2--2--2--2--|--4--4--4--4--4--4--4--4--|
--3--3--3--3--3--3--3--3--|--2--2--2--2--2--2--2--2--|
--------------------------|--------------------------|


  D  D  D  D  D  D  D  D     A  A  A  A  A  A  A  A     C    C    C    C     
  E  E  E  E  E  E  E  E     E  E  E  E  E  E  E  E     Q    Q    Q    Q     
--2--2--2--2--2--2--2--2--|--0--0--0--0--0--0--0--0--|--0----0----0----0----|
--3--3--3--3--3--3--3--3--|--2--2--2--2--2--2--2--2--|--1----1----1----1----|
--2--2--2--2--2--2--2--2--|--2--2--2--2--2--2--2--2--|--0----0----0----0----|
--0--0--0--0--0--0--0--0--|--2--2--2--2--2--2--2--2--|--2----2----2----2----|
--------------------------|--0--0--0--0--0--0--0--0--|--3----3----3----3----|
--------------------------|--------------------------|----------------------|


  C    C    C    C       B    B    B    B       B    B    B    B     
  Q    Q    Q    Q       Q    Q    Q    Q       Q    Q    Q    Q     
--0----0----0----0----|--2----2----2----2----|--2----2----2----2----|
--1----1----1----1----|--4----4----4----4----|--4----4----4----4----|
--0----0----0----0----|--4----4----4----4----|--4----4----4----4----|
--2----2----2----2----|--4----4----4----4----|--4----4----4----4----|
--3----3----3----3----|--2----2----2----2----|--2----2----2----2----|
----------------------|----------------------|----------------------|


  C  C  C  C  C  C  C  C     B  B  B  B  B  B  B  B   
  E  E  E  E  E  E  E  E     E  E  E  E  E  E  E  E   
--0--0--0--0--0--0--0--0--|--2--2--2--2--2--2--2--2--|
--1--1--1--1--1--1--1--1--|--4--4--4--4--4--4--4--4--|
--0--0--0--0--0--0--0--0--|--4--4--4--4--4--4--4--4--|
--2--2--2--2--2--2--2--2--|--4--4--4--4--4--4--4--4--|
--3--3--3--3--3--3--3--3--|--2--2--2--2--2--2--2--2--|
--------------------------|--------------------------|


  D  D  D  D  D  D  D  D     A  A  A  A  A  A  A  A   
  E  E  E  E  E  E  E  E     E  E  E  E  E  E  E  E   
--2--2--2--2--2--2--2--2--|--0--0--0--0--0--0--0--0--|
--3--3--3--3--3--3--3--3--|--2--2--2--2--2--2--2--2--|
--2--2--2--2--2--2--2--2--|--2--2--2--2--2--2--2--2--|
--0--0--0--0--0--0--0--0--|--2--2--2--2--2--2--2--2--|
--------------------------|--0--0--0--0--0--0--0--0--|
--------------------------|--------------------------|


  Guitar Solo                                                  
  E           E  E  E  E  E  E  E     E  E  E  E  E  E  E  E   
-----------------------------------|--------------------------|
-----------------------------------|--------------------------|
-----------------------------3--2--|--------------------2-----|
--2-----------2--2--2--2--2--------|--2--2--2--2--2--3--------|
-----------------------------------|--------------------------|
-----------------------------------|--------------------------|


  E  E  E  E  E  E  E  E     E  E  E  E  E  E  E  E   
--------------------------|--------------------------|
--------------------------|--------------------------|
--------------------3--2--|--------------------2-----|
--2--2--2--2--2--2--------|--2--2--2--2--2--3--------|
--------------------------|--------------------------|
--------------------------|--------------------------|


  Verse 2                                                  
  
-------------------------------|--------------------------|
-------------------------------|--------------------------|
-------------------------3--2--|--------------------2-----|
--2-------2--2--2--2--2--------|--2--2--2--2--2--3--------|
-------------------------------|--------------------------|
-------------------------------|--------------------------|


   
--------------------------|--------------------------|
--------------------------|--------------------------|
--------------------3--2--|--------------------2-----|
--2--2--2--2--2--2--------|--2--2--2--2--2--3--------|
--------------------------|--------------------------|
--------------------------|--------------------------|


  
--------------------------|--------------------------|
--------------------------|--------------------------|
--------------------3--2--|--------------------2-----|
--2--2--2--2--2--2--------|--2--2--2--2--2--3--------|
--------------------------|--------------------------|
--------------------------|--------------------------|


 
--------------------------|--------------------------|
--------------------------|--------------------------|
--------------------3--2--|--------------------2-----|
--2--2--2--2--2--2--------|--2--2--2--2--2--3--------|
--------------------------|--------------------------|
--------------------------|--------------------------|


  Chorus                                                  
  C      C  C  C  C  C  C  C     B  B  B  B  B  B  B  B   
 
--0------0--0--0--0--0--0--0--|--2--2--2--2--2--2--2--2--|
--1------1--1--1--1--1--1--1--|--4--4--4--4--4--4--4--4--|
--0------0--0--0--0--0--0--0--|--4--4--4--4--4--4--4--4--|
--2------2--2--2--2--2--2--2--|--4--4--4--4--4--4--4--4--|
--3------3--3--3--3--3--3--3--|--2--2--2--2--2--2--2--2--|
------------------------------|--------------------------|


  D  D  D  D  D  D  D  D     A  A  A  A  A  A  A  A   
  
--2--2--2--2--2--2--2--2--|--0--0--0--0--0--0--0--0--|
--3--3--3--3--3--3--3--3--|--2--2--2--2--2--2--2--2--|
--2--2--2--2--2--2--2--2--|--2--2--2--2--2--2--2--2--|
--0--0--0--0--0--0--0--0--|--2--2--2--2--2--2--2--2--|
--------------------------|--0--0--0--0--0--0--0--0--|
--------------------------|--------------------------|


  C  C  C  C  C  C  C  C     B  B  B  B  B  B  B  B   
  
--0--0--0--0--0--0--0--0--|--2--2--2--2--2--2--2--2--|
--1--1--1--1--1--1--1--1--|--4--4--4--4--4--4--4--4--|
--0--0--0--0--0--0--0--0--|--4--4--4--4--4--4--4--4--|
--2--2--2--2--2--2--2--2--|--4--4--4--4--4--4--4--4--|
--3--3--3--3--3--3--3--3--|--2--2--2--2--2--2--2--2--|
--------------------------|--------------------------|


  D  D  D  D  D  D  D  D     A  A  A  A  A  A  A  A     C    C    C    C     
     
--2--2--2--2--2--2--2--2--|--0--0--0--0--0--0--0--0--|--0----0----0----0----|
--3--3--3--3--3--3--3--3--|--2--2--2--2--2--2--2--2--|--1----1----1----1----|
--2--2--2--2--2--2--2--2--|--2--2--2--2--2--2--2--2--|--0----0----0----0----|
--0--0--0--0--0--0--0--0--|--2--2--2--2--2--2--2--2--|--2----2----2----2----|
--------------------------|--0--0--0--0--0--0--0--0--|--3----3----3----3----|
--------------------------|--------------------------|----------------------|


  C    C    C    C       B    B    B    B       B    B    B    B     
   
--0----0----0----0----|--2----2----2----2----|--2----2----2----2----|
--1----1----1----1----|--4----4----4----4----|--4----4----4----4----|
--0----0----0----0----|--4----4----4----4----|--4----4----4----4----|
--2----2----2----2----|--4----4----4----4----|--4----4----4----4----|
--3----3----3----3----|--2----2----2----2----|--2----2----2----2----|
----------------------|----------------------|----------------------|


  C  C  C  C  C  C  C  C     B  B  B  B  B  B  B  B   
  
--0--0--0--0--0--0--0--0--|--2--2--2--2--2--2--2--2--|
--1--1--1--1--1--1--1--1--|--4--4--4--4--4--4--4--4--|
--0--0--0--0--0--0--0--0--|--4--4--4--4--4--4--4--4--|
--2--2--2--2--2--2--2--2--|--4--4--4--4--4--4--4--4--|
--3--3--3--3--3--3--3--3--|--2--2--2--2--2--2--2--2--|
--------------------------|--------------------------|


  D  D  D  D  D  D  D  D     A  A  A  A  A  A  A  A   
    
--2--2--2--2--2--2--2--2--|--0--0--0--0--0--0--0--0--|
--3--3--3--3--3--3--3--3--|--2--2--2--2--2--2--2--2--|
--2--2--2--2--2--2--2--2--|--2--2--2--2--2--2--2--2--|
--0--0--0--0--0--0--0--0--|--2--2--2--2--2--2--2--2--|
--------------------------|--0--0--0--0--0--0--0--0--|
--------------------------|--------------------------|


     C     C     C     C        C     C     C     C   
   
-----0-----0-----0-----0--|-----0-----0-----0-----0--|
-----1-----1-----1-----1--|-----1-----1-----1-----1--|
-----0-----0-----0-----0--|-----0-----0-----0-----0--|
-----2-----2-----2-----2--|-----2-----2-----2-----2--|
-----3-----3-----3-----3--|-----3-----3-----3-----3--|
--------------------------|--------------------------|


     B     B     B     B        B     B     B     B   
  
-----2-----2-----2-----2--|-----2-----2-----2-----2--|
-----4-----4-----4-----4--|-----4-----4-----4-----4--|
-----4-----4-----4-----4--|-----4-----4-----4-----4--|
-----4-----4-----4-----4--|-----4-----4-----4-----4--|
-----2-----2-----2-----2--|-----2-----2-----2-----2--|
--------------------------|--------------------------|


     C     C     C     C        C     C     C     C   
    
-----0-----0-----0-----0--|-----0-----0-----0-----0--|
-----1-----1-----1-----1--|-----1-----1-----1-----1--|
-----0-----0-----0-----0--|-----0-----0-----0-----0--|
-----2-----2-----2-----2--|-----2-----2-----2-----2--|
-----3-----3-----3-----3--|-----3-----3-----3-----3--|
--------------------------|--------------------------|


     B     B     B     B        B     B     B     B   
   
-----2-----2-----2-----2--|-----2-----2-----2-----2--|
-----4-----4-----4-----4--|-----4-----4-----4-----4--|
-----4-----4-----4-----4--|-----4-----4-----4-----4--|
-----4-----4-----4-----4--|-----4-----4-----4-----4--|
-----2-----2-----2-----2--|-----2-----2-----2-----2--|
--------------------------|--------------------------|


  
-----------------------------|--------------------------|
-----------------------------|--------------------------|
-----------------------2--1--|--------------------1-----|
--1-----1--1--1--1--1--------|--1--1--1--1--1--2--------|
-----------------------------|--------------------------|
-----------------------------|--------------------------|


   
-----------------------------|--------------------------|
-----------------------------|--------------------------|
-----------------------2--1--|--------------------1-----|
--1-----1--1--1--1--1--------|--1--1--1--1--1--2--------|
-----------------------------|--------------------------|
-----------------------------|--------------------------|

                                                  
  
-----------------------------|--------------------------|
-----------------------------|--------------------------|
-----------------------3--2--|--------------------2-----|
--2-----2--2--2--2--2--------|--2--2--2--2--2--3--------|
-----------------------------|--------------------------|
-----------------------------|--------------------------|


                                                 
-----------------------------|--------------------------|
-----------------------------|--------------------------|
-----------------------3--2--|--------------------2-----|
--2-----2--2--2--2--2--------|--2--2--2--2--2--3--------|
-----------------------------|--------------------------|
-----------------------------|--------------------------|


  Chorus                                                  
  C      C  C  C  C  C  C  C     B  B  B  B  B  B  B  B   
  
--0------0--0--0--0--0--0--0--|--2--2--2--2--2--2--2--2--|
--1------1--1--1--1--1--1--1--|--4--4--4--4--4--4--4--4--|
--0------0--0--0--0--0--0--0--|--4--4--4--4--4--4--4--4--|
--2------2--2--2--2--2--2--2--|--4--4--4--4--4--4--4--4--|
--3------3--3--3--3--3--3--3--|--2--2--2--2--2--2--2--2--|
------------------------------|--------------------------|


  D  D  D  D  D  D  D  D     A  A  A  A  A  A  A  A   
  
--2--2--2--2--2--2--2--2--|--0--0--0--0--0--0--0--0--|
--3--3--3--3--3--3--3--3--|--2--2--2--2--2--2--2--2--|
--2--2--2--2--2--2--2--2--|--2--2--2--2--2--2--2--2--|
--0--0--0--0--0--0--0--0--|--2--2--2--2--2--2--2--2--|
--------------------------|--0--0--0--0--0--0--0--0--|
--------------------------|--------------------------|


  C  C  C  C  C  C  C  C     B  B  B  B  B  B  B  B   
  
--0--0--0--0--0--0--0--0--|--2--2--2--2--2--2--2--2--|
--1--1--1--1--1--1--1--1--|--4--4--4--4--4--4--4--4--|
--0--0--0--0--0--0--0--0--|--4--4--4--4--4--4--4--4--|
--2--2--2--2--2--2--2--2--|--4--4--4--4--4--4--4--4--|
--3--3--3--3--3--3--3--3--|--2--2--2--2--2--2--2--2--|
--------------------------|--------------------------|


  D  D  D  D  D  D  D  D     A  A  A  A  A  A  A  A     C    C    C    C     
      
--2--2--2--2--2--2--2--2--|--0--0--0--0--0--0--0--0--|--0----0----0----0----|
--3--3--3--3--3--3--3--3--|--2--2--2--2--2--2--2--2--|--1----1----1----1----|
--2--2--2--2--2--2--2--2--|--2--2--2--2--2--2--2--2--|--0----0----0----0----|
--0--0--0--0--0--0--0--0--|--2--2--2--2--2--2--2--2--|--2----2----2----2----|
--------------------------|--0--0--0--0--0--0--0--0--|--3----3----3----3----|
--------------------------|--------------------------|----------------------|


  C    C    C    C       B    B    B    B       B    B    B    B     
     
--0----0----0----0----|--2----2----2----2----|--2----2----2----2----|
--1----1----1----1----|--4----4----4----4----|--4----4----4----4----|
--0----0----0----0----|--4----4----4----4----|--4----4----4----4----|
--2----2----2----2----|--4----4----4----4----|--4----4----4----4----|
--3----3----3----3----|--2----2----2----2----|--2----2----2----2----|
----------------------|----------------------|----------------------|


  C  C  C  C  C  C  C  C     B  B  B  B  B  B  B  B   
   
--0--0--0--0--0--0--0--0--|--2--2--2--2--2--2--2--2--|
--1--1--1--1--1--1--1--1--|--4--4--4--4--4--4--4--4--|
--0--0--0--0--0--0--0--0--|--4--4--4--4--4--4--4--4--|
--2--2--2--2--2--2--2--2--|--4--4--4--4--4--4--4--4--|
--3--3--3--3--3--3--3--3--|--2--2--2--2--2--2--2--2--|
--------------------------|--------------------------|


  D  D  D  D  D  D  D  D     A  A  A  A  A  A  A  A   
  
--2--2--2--2--2--2--2--2--|--0--0--0--0--0--0--0--0--|
--3--3--3--3--3--3--3--3--|--2--2--2--2--2--2--2--2--|
--2--2--2--2--2--2--2--2--|--2--2--2--2--2--2--2--2--|
--0--0--0--0--0--0--0--0--|--2--2--2--2--2--2--2--2--|
--------------------------|--0--0--0--0--0--0--0--0--|
--------------------------|--------------------------|


  Chorus                                                  
  C      C  C  C  C  C  C  C     B  B  B  B  B  B  B  B   
     
--0------0--0--0--0--0--0--0--|--2--2--2--2--2--2--2--2--|
--1------1--1--1--1--1--1--1--|--4--4--4--4--4--4--4--4--|
--0------0--0--0--0--0--0--0--|--4--4--4--4--4--4--4--4--|
--2------2--2--2--2--2--2--2--|--4--4--4--4--4--4--4--4--|
--3------3--3--3--3--3--3--3--|--2--2--2--2--2--2--2--2--|
------------------------------|--------------------------|


  D  D  D  D  D  D  D  D     A  A  A  A  A  A  A  A   
    
--2--2--2--2--2--2--2--2--|--0--0--0--0--0--0--0--0--|
--3--3--3--3--3--3--3--3--|--2--2--2--2--2--2--2--2--|
--2--2--2--2--2--2--2--2--|--2--2--2--2--2--2--2--2--|
--0--0--0--0--0--0--0--0--|--2--2--2--2--2--2--2--2--|
--------------------------|--0--0--0--0--0--0--0--0--|
--------------------------|--------------------------|


  C  C  C  C  C  C  C  C     B  B  B  B  B  B  B  B   
 
--0--0--0--0--0--0--0--0--|--2--2--2--2--2--2--2--2--|
--1--1--1--1--1--1--1--1--|--4--4--4--4--4--4--4--4--|
--0--0--0--0--0--0--0--0--|--4--4--4--4--4--4--4--4--|
--2--2--2--2--2--2--2--2--|--4--4--4--4--4--4--4--4--|
--3--3--3--3--3--3--3--3--|--2--2--2--2--2--2--2--2--|
--------------------------|--------------------------|


  D  D  D  D  D  D  D  D     A  A  A  A  A  A  A  A     C    C    C    C     
    
--2--2--2--2--2--2--2--2--|--0--0--0--0--0--0--0--0--|--0----0----0----0----|
--3--3--3--3--3--3--3--3--|--2--2--2--2--2--2--2--2--|--1----1----1----1----|
--2--2--2--2--2--2--2--2--|--2--2--2--2--2--2--2--2--|--0----0----0----0----|
--0--0--0--0--0--0--0--0--|--2--2--2--2--2--2--2--2--|--2----2----2----2----|
--------------------------|--0--0--0--0--0--0--0--0--|--3----3----3----3----|
--------------------------|--------------------------|----------------------|


  C    C    C    C       B    B    B    B       B    B    B    B     
     
--0----0----0----0----|--2----2----2----2----|--2----2----2----2----|
--1----1----1----1----|--4----4----4----4----|--4----4----4----4----|
--0----0----0----0----|--4----4----4----4----|--4----4----4----4----|
--2----2----2----2----|--4----4----4----4----|--4----4----4----4----|
--3----3----3----3----|--2----2----2----2----|--2----2----2----2----|
----------------------|----------------------|----------------------|


  C  C  C  C  C  C  C  C     B  B  B  B  B  B  B  B   
  
--0--0--0--0--0--0--0--0--|--2--2--2--2--2--2--2--2--|
--1--1--1--1--1--1--1--1--|--4--4--4--4--4--4--4--4--|
--0--0--0--0--0--0--0--0--|--4--4--4--4--4--4--4--4--|
--2--2--2--2--2--2--2--2--|--4--4--4--4--4--4--4--4--|
--3--3--3--3--3--3--3--3--|--2--2--2--2--2--2--2--2--|
--------------------------|--------------------------|


  D  D  D  D  D  D  D  D     A  A  A  A  A  A  A  A                
                  
--2--2--2--2--2--2--2--2--|--0--0--0--0--0--0--0--0--|-----|-----||
--3--3--3--3--3--3--3--3--|--2--2--2--2--2--2--2--2--|-----|-----||
--2--2--2--2--2--2--2--2--|--2--2--2--2--2--2--2--2--|-----|-----||
--0--0--0--0--0--0--0--0--|--2--2--2--2--2--2--2--2--|-----|-----||
--------------------------|--0--0--0--0--0--0--0--0--|-----|-----||
--------------------------|--------------------------|-----|-----||







Tablature Legend
----------------
L - tied note
x - dead note
g - grace note
(n) - ghost note
> - accentuded note
NH - natural harmonic
AH - artificial harmonic
TH - tapped harmonic
SH - semi harmonic
PH - pitch harmonic
h - hammer on
p - pull off
b - bend
br - bendRelease
pb - preBend
pbr - preBendRelease
brb - bendReleaseBend
\n/ - tremolo bar dip
\n - tremolo bar dive
-/n - tremolo bar Release up
/n\ - tremolo bar inverted dip
/n - tremolo bar return
-\n - tremolo bar Release down
S - shift slide
s - legato slide
/ -  slide into from below or out of upwards
\ -  slide into from above or out of downwards
~ - vibrato
W - wide vibrato
tr - trill
TP - tremolo picking
T - tapping
S - slap
P - pop
< - fade in
^ - brush up
v - brush down

This song is by Travis Mashburn, the YouTube account is travismashburnmusic.  This 
is his tabbing account and this song is still in the works so the tab will be improved later.
Tap to rate this tab
 
# A B C D E F G H I J K L M N O P Q R S T U V W X Y Z