Song name
# A B C D E F G H I J K L M N O P Q R S T U V W X Y Z

Misc Unsigned Bands - The Crosstown Rivalry - Falling For You Acoustic tab

Intro/Verse:
|----------------|
|------7---------|
|------7---------|
|---9--0--5--7---|
|---9--5--5--7---|
|---7-----3--5---|

Pre-Chorus: (Repeat strumming pattern for 4 Measures)
|-------|
|-------|
|-------|
|---7---|
|---7---|
|---5---|

Chorus:      
                                 x2         "make you wanna say..." x2        End on:
|---------------|          |-----------------|              |---|
|---------------|          |-----------------|              |---|
|---------------|          |-------------7---|              |---|
|---5--5--9--7--|          |-5--7--7--9--7---|              |-5-|
|---5--5--9--7--|          |-5--7--7--9--5---|              |-5-|
|---3--3--7--5--|          |-3--5--5--7------|              |-3-|

Verse:
|----------------|
|------7---------|
|------7---------|
|---9--0--5--7---|
|---9--5--5--7---|
|---7-----3--5---|

Pre-Chorus: (Repeat strumming pattern for 4 Measures)
|-------|
|-------|
|-------|
|---7---|
|---7---|
|---5---|

Chorus:      
                                 x2         "make you wanna say..." x2        End on:
|---------------|          |-----------------|              |---|
|---------------|          |-----------------|              |---|
|---------------|          |-------------7---|              |---|
|---5--5--9--7--|          |-5--7--7--9--7---|              |-5-|
|---5--5--9--7--|          |-5--7--7--9--5---|              |-5-|
|---3--3--7--5--|          |-3--5--5--7------|              |-3-|

Bridge/Ending:                        
                                                    End on:
|-------------------|     |---|
|-------------------|     |---|
|---7---------------|     |-7-|
|---7-----5--9--7---|     |-7-|
|---5-----5--9--7---|     |-5-|
|---------3--7--5---|     |---|


Tap to rate this tab
# A B C D E F G H I J K L M N O P Q R S T U V W X Y Z