Song name
# A B C D E F G H I J K L M N O P Q R S T U V W X Y Z

Misc Unsigned Bands - Lovvers - Search For Gold tab

Lovvers - Search for Gold
=========================


Off of ' Laughing Man/ Search for Gold'

tabbed by the bass playing sheep (sheep611@gmail.com)

Yeah, this ain't 100%, but no-one else has tried...

() - let ring
~  - vibrato
b  - bend to
r  - release bend


Standard Tuning, lots of distortion...


guitar 1 - 'rythm'
guitar 2 - 'lead'
guitar 3 - 'fills'



Intro:
------

                                                                                           x2
e|------------------------------------------------------------------------------------------|----|
B|------------------------------------------------------------------------------------------|----|  
G|16-16-16-16-12-12-12-12-15-15-15-15-11-11-11-11--16-16-16-16-12-12-12-12-15-15-15-15-(11)-|(16)| 
D|14-14-14-14-10-10-10-10-13-13-13-13--9--9--9--9--14-14-14-14-10-10-10-10-13-13-13-13-(-9)-|(14)|
A|14-14-14-14-10-10-10-10-13-13-13-13--9--9--9--9--14-14-14-14-10-10-10-10-13-13-13-13-(-9)-|(14)|
E|------------------------------------------------------------------------------------------|----|
 |                                                                                          |    |
 |                                                                                          |    |
e|------------------------------------------------------------------------------------------|----|
B|------------------------------------------------------------------------------------------|----|
G|4--4--4--4--4--4--4--4--4--4--4--4--4--4--4--4---4--5--4--5-5h7-5--4--5-5h7-5--4--5---3--3|(4)-|  
D|------------------------------------------------------------------------------------------|----|
A|------------------------------------------------------------------------------------------|----|
E|------------------------------------------------------------------------------------------|----|
  |______________________________________________|
                       |
   gradually bend and release the second time


verse 1:
--------
                                       x4
e|--------------------------------------|
B|--------------------------------------|
G|-44444444----------33333333-----------| both guitars
D|-44444444-55555555-33333333-444444444-|
A|-22222222-55555555-11111111-444444444-|
E|----------33333333----------222222222-|


Chorus part 1:
--------------

           x3
e|----------|-----------------|
B|----------|-----------------|
G|-4444-----|-----------------| both guitars
D|-4444-5-4-|-5-5-5-5-4-4-4-4-|
A|-2222-5-4-|-5-5-5-5-4-4-4-4-|
E|------3-2-|-3-3-3-3-2-2-2-2-|

           x3
e|----------|-----------------|
B|----------|-----------------|
G|-4444-----|-----------------| 
D|-4444-5-4-|-5-5-5-5-4-4-4-4-|
A|-2222-5-4-|-5-5-5-5-4-4-4-4-|
E|------3-2-|-3-3-3-3-2-2-2-2-|


e|-------------------------|
B|-------------------------|
G|-------------------------| guitar 1
D|-4-4-4-4-4-4-4-4-4-4-4-4-|
A|-4-4-4-4-4-4-4-4-4-4-4-4-|
E|-2-2-2-2-2-2-2-2-2-2-2-2-|
 |                         |
 |                         |
e|-------------5(7)--------|
B|---------5-7-------------|
G|-----4-7-----------------| guitar 2
D|-4-7---------------------|
A|-------------------------|
E|-------------------------|


Chorus part 2:
--------------

           x3                            x3
e|----------|-----------------||----------|-----------------|
B|----------|-----------------||----------|-----------------|
G|-4444-----|-----------------||-4444-----|-----------------| 
D|-4444-5-2-|-5-5-5-5-4-4-4-4-||-4444-5-2-|-5-5-5-5-4-4-4-4-|
A|-2222-5-2-|-5-5-5-5-4-4-4-4-||-2222-5-2-|-5-5-5-5-4-4-4-4-|
E|------3-0-|-3-3-3-3-2-2-2-2-||------3-0-|-3-3-3-3-2-2-2-2-|
 |          |                 ||          |                 |
 |          |                 ||          |                 |
e|----------|-----------------||----------|-----------------|
B|----------|-12~~~~~-11~~~~~-||----------|-12~~~~~-11~~~~~-|
G|-4444-----|-----------------||-4444-----|-----------------|  
D|-4444-5-2-|-----------------||-4444-5-2-|-----------------|
A|-2222-5-2-|-----------------||-2222-5-2-|-----------------|
E|------3-0-|-----------------||------3-0-|-----------------|


e|-------------------------|
B|-------------------------|
G|-------------------------| guitar 1
D|-4-4-4-4-4-4-4-4-4-4-4-4-|
A|-4-4-4-4-4-4-4-4-4-4-4-4-|
E|-2-2-2-2-2-2-2-2-2-2-2-2-|
 |                         |
e|-------------------------|
B|-11~~~~~~~~~~~~~~~~~~~~~~|
G|-------------------------| guitar 2
D|-------------------------|
A|-------------------------|
E|-------------------------|
 |                         |
e|-------------5(7)--------|
B|---------5-7-------------|
G|-----4-7-----------------| guitar 3
D|-4-7---------------------|
A|-------------------------|
E|-------------------------|



Verse 2:
--------
                                                  x2
e|-------------------------------------------------|
B|-------------------------------------------------|
G|-16-16-16-16-12-12-12-12-15-15-15-15-11-11-11-11-| guitar 1
D|-14-14-14-14-10-10-10-10-13-13-13-13-11-11-11-11-|
A|-14-14-14-14-10-10-10-10-13-13-13-13--9--9--9--9-|
E|-------------------------------------------------|
 |                                                 |
 |                                                 | 
e|-------------------------------------------------|
B|-12~12~12~12~8~~8~~8~~8~~11~~~~~~~~~~7~~~~~~~~~~~|
G|-------------------------------------------------| guitar 2
D|-------------------------------------------------|
A|-------------------------------------------------|
E|-------------------------------------------------|


e|-------------------------------------------------|
B|-------------------------------------------------|
G|-16-16-16-16-12-12-12-12-15-15-15-15-11-11-11-11-| 
D|-14-14-14-14-10-10-10-10-13-13-13-13-11-11-11-11-|
A|-14-14-14-14-10-10-10-10-13-13-13-13--9--9--9--9-|
E|-------------------------------------------------|
 |                                                 |
 |                                                 | 
e|-------------------------------------------------|
B|-------------------------------------------------|
G|-------------------------------------------------| this part is a mess, do what you will
D|-9--9--9b11r95--5--5--5--8~~~~~~~~~~~4~~~~~~~~~~~|
A|-------------------------------------------------|
E|-------------------------------------------------|


e|-------------------------------------------------|
B|-------------------------------------------------|
G|-16-16-16-16-12-12-12-12-(15)--------(11)--------| 
D|-14-14-14-14-10-10-10-10-(13)--------(11)--------|
A|-14-14-14-14-10-10-10-10-(13)--------(-9)--------|
E|-------------------------------------------------|
 |                                                 |
 |                                                 | 
e|-------------------------------------------------|
B|-------------------------------------------------|
G|-------------------------------------------------| 
D|-9--9--9b11r95--5--5--5--------------------------|
A|-------------------------------------------------|
E|-------------------------------------------------|


Chorus part 1

Chorus part 2

Then its a synth/ keyboard ending...

thats it, enjoy!
Tap to rate this tab
# A B C D E F G H I J K L M N O P Q R S T U V W X Y Z