Guitaretab - guitar tabs
Song name
# A B C D E F G H I J K L M N O P Q R S T U V W X Y Z

Misc Unsigned Bands - Pilot To Gunner - Barrio Superstarrio tab

Drum Intro  0.00  0.10

VERSE 1
Guitar 1
e---|
B---|
G-9~|
D-9~|
A-7~|
E---|

Guitar 2 (repeat until end)
e---|
B---|
G-9-|
D-9-|
A-7-|
E---|

CHORUS x2
Guitar 1
e----------------------------------------------------------------------|
B----------------------------------------------------------------------|
G----------------------------------------------12-------12-------12----|
D-------------------------------------------------12-------12-------12-|
A-5h7-77-5h7-77-5h7-7---7h9-99-7h9-10-9-7-9---10------10-------10------|
E----------------------------------------------------------------------|

e---------------------------|
B---------------------------|
G---------------------------|
D---------------------------|
A-10h12-1212-10/12-14-12-14-|
E---------------------------|

Guitar 2
e---------------------------------------------|
B---------------------------------------------|
G-9-------11-----12---------------------------|
D-x-(x12)-x-(x8)-x-(x8)-10------7------9------|
A-7-------9------10-----x-(x12)-x-(x8)-x-(x8)-|
E-----------------------8-------5------7------|


VERSE 2
Guitar 1
e------12~-|---|
B----------|---|
G-9~-------|-9~|
D-9~-------|-9~|
A-7~-------|-7~|
E----------|---|
[ Tab from: http://www.guitaretab.com/m/misc-unsigned-bands/185534.html ]
Guitar 2 (repeat until end)
e---|
B---|
G-9-|
D-9-|
A-7-|
E---|


Repeat Chorus


BRIDGE
Both Guitars
e----------------------|
B----------------------|
G-999-999-999-999-99-9-|
D-999-999-999-999-99-9-|
A-777-777-777-777-77-7-|
E----------------------|

X2
e-------------------|
B-------------------|
G-7-------------999-|
D-7-(x8)-7------999-|
A-5------7-(x8)-777-|
E--------5----------|

Guitar 2 x4
e-----------------------|
B-----------------------|
G-9-------7-------------|
D-9-(x16)-7------7------|
A-7-------5-(x4)-7-(x4)-|
E----------------5------|

Guitar 1 1.45  1.55
e-7b-7b-7b-7b---5b-5b---0-0-|
B---------------------------|
G---------------------------|
D---------------------------|
A---------------------------|
E---------------------------|

REST

Guitar 1 x4
e------7-------7---|
B------------------|
G7-9------7-9---9-|
D------------------|
A------------------|
E------------------|

Guitar 2
Enters halfway x2
e----------|
B----------|
G-7h9~-7h9~|
D----------|
A----------|
E----------|


Repeat Chorus

OUTRO
Both Guitars
e--------------------------------------|
B--------------------------------------|
G-999-999-999-999-999-999-999-999-99-9-|
D-999-999-999-999-999-999-999-999-99-9-|
A-777-777-777-777-777-777-777-777-77-7-|
E--------------------------------------|
Related for Pilot To Gunner - Barrio Superstarrio tab