Song name
# A B C D E F G H I J K L M N O P Q R S T U V W X Y Z

Misc Unsigned Bands - Shelbyville - Dream Shimmer tab

Artist: Shelbyville
Album: Manhattan
Song: Dream Shimmer

Tuning: DADGBE

/ = SLIDE
h = HAMMER ON
p = PULL OFF
. = PALM MUTE


--------------------
Live Intro:
--------------------

Guitar 1
E|----------------------------------------------------|
B|----------------------------------------------------|
G|-------9------------7-7--6--------2--------6--------|
D|-----7----7-------0-------------0--------0----0-----|
A|---7--------7-----------------4--------4--------4---|
D|-7------------7-9-----------0--------0------------0-|

E|---------------------------------------------------|
B|---------------------------------------------------|
G|-------9------------7-7--6-------------------------|
D|-----7----7-------0------------------------------0~|
A|---7--------7------------------0-4/5/7----0h2/4--0~|
D|-7------------7-9------------0----------0--------0~|


--------------------
Intro:
--------------------

Guitar 1
E|-------------------------------------------------------------------------------------------|
B|-------------------------------------------------------------------------------------------|
G|-999997777776666677777799999777777---------------------999997777776666677777799999777777-6~|
D|-77777000000-----------99999000000---------------------77777000000-----------99999000000-0~|
A|-77777------4444455555577777-----------4h5/7----0h2/4--77777------4444455555577777-------0~|
D|-777779999990000000000077777999999-0-0--------0--------777779999990000000000077777999999-0~|
                                     . .        .

E|-----------------------------------------------------------|
B|-----------------------------------------------------------|
G|-----------------------------------------------------------|
D|-7-7-7-7-7-7-7-7-7-7-7-777-777-----------------------------|
A|-7-7-7-7-7-7-7-7-7-7-7-777-777-5-5-5-5-5-5-5-5-5-5-5-4h5p4-|
D|-7-7-7-7-7-7-7-7-7-7-7-777-777-9-9-9-9-9-9-9-9-9-9-9-------|
     . . . . .   .   . . ... ...   . . . . .   .   . .

E|-------------------------------------------------------------|
B|-------------------------------------------------------------|
G|-------------------------------------------------------------|
D|-0-0-0-0-0-0-0-0-0-0-0---------0-0-0-0-0-0-0-0-0-0-0---------|
A|-0-0-0-0-0-0-0-0-0-0-0-5h7-4h5-0-0-0-0-0-0-0-0-0-0-0-5h7-4h5-|
D|-0-0-0-0-0-0-0-0-0-0-0---------0-0-0-0-0-0-0-0-0-0-0---------|
   . . . . .   .   . .           . . . . .   .   . .

E|-------|
B|-------|
G|-6/7/9-|
D|-------|
A|-4/5/7-|
D|-------|


--------------------
Chorus:
--------------------

Guitar 1
E|-----------------------------------------------------------------------------------------------|
B|-----------------------------------------------------------------------------------------------|
G|-999997777776666677777799999777777---------------------999997777776666677777799999777777-666-6~|
D|-77777000000-----------99999000000---------------------77777000000-----------99999000000-000-0~|
A|-77777------4444455555577777-----------4h5/7----0h2/4--77777------4444455555577777-------000-0~|
D|-777779999990000000000077777999999-0-0--------0--------777779999990000000000077777999999-000-0~|
                                     . .        .


--------------------
Verse 2:
--------------------

Guitar 1
E|---------------------------------------------------------|
B|---------------------------------------------------------|
G|---------9-----------------------------------------------|
D|-7-----------9---7-----777-777---------------------------|
A|-7---------------------777-777-5-------7---5-----4---4h5-|
D|-7-7-7-7---7---7---7-7-777-777-9-9-9-9---9---9-9---9-----|
     . . .   .   .   . . ... ...   . . .   .   . .   .

E|-------------------------------------------------------------|
B|-------------------------------------------------------------|
G|-------------------------------------------------------------|
D|-0-------7---6h7---0-----------0-------7---6h9---0-----------|
A|-0-----------------0---5h7-4h5-0-----------------0---5h7-4h5-|
D|-0-0-0-0---0-----0-0-0---------0-0-0-0---0-----0-0-0---------|
     . . .   .     .   .           . . .   .     .   .

E|-----------------------------------------------------------|
B|-----------------------------------------------------------|
G|-----------------------------------------------------------|
D|-7-------7---9-----7---777-777---------7---7---------------|
A|-7---------------------777-777-5-----------------5---4h5p0-|
D|-7-7-7-7---7---7-7---7-777-777-9-9-9-9---9---9-9---9-------|
     . . .   .   . .   . ... ...   . . .   .   . .   .

E|-----------------------------------------------------------|
B|-----------------------------------------------------------|
G|-----------------------------------------------------6/7/9-|
D|-0-------7---6h7---0-----------0-------7---6h9---0---------|
A|-0-----------------0---5h7-4h5-0-----------------0---4/5/7-|
D|-0-0-0-0---0-----0-0-0---------0-0-0-0---0-----0-0-0-------|
     . . .   .     .   .           . . .   .     .   .


--------------------
Chorus:
--------------------

Guitar 1
E|------------------------------------------------------|
B|------------------------------------------------------|
G|-999997777776666677777799999777777--------------------|
D|-77777000000-----------99999000000--------------------|
A|-77777------4444455555577777-----------4h5/7----0h2/4-|
D|-777779999990000000000077777999999-0-0--------0-------|
                                     . .        .

E|------------------------------------------------|
B|------------------------------------------------|
G|-999997777776666677777799999777777-131313141414-|
D|-77777000000-----------99999000000--------------|
A|-77777------4444455555577777-------111111121212-|
D|-777779999990000000000077777999999--0-0-0-0-0-0-|


--------------------
Bridge:
--------------------

Guitar 1
E|--------------------------------------------------------------|
B|--------------------------------------------------------------|
G|-----2-----------2------------------2-----------2-------------|
D|-----------2-----------2-----2------------2-----------2-----2-|
A|-4-4---4-4---4-4---4-4---4-4----5-5---5-5---5-5---5-5---5-5---|
D|--------------------------------------------------------------|
   . .   . .   . .   . .   . .    . .   . .   . .   . .   . .

E|--------------------------------------------------------------|
B|--------------------------------------------------------------|
G|-----4---------4--------------------4---------4---------------|
D|---------6h7-------6h7---666h7----------6h7-------6h7---666h7-|
A|-7-7---7-----7---7-----7--------7-7---7-----7---7-----7-------|
D|--------------------------------------------------------------|
   . .   .     .   .     .        . .   .     .   .     .

E|---------------------------------------------------------|
B|---------------------------------------------------------|
G|-----2---------2-----------------2---------2-------------|
D|----------2---------2-----------------2---------2--------|
A|-4-4----4----4----4----4-2/4-5-5----5----5----5----5-4/5-|
D|---------------------------------------------------------|
   . .    .    .    .    .     . .    .    .    .    .

E|--------------------------------------------------------------|
B|--------------------------------------------------------------|
G|-----4---------4--------------------4---------4---------------|
D|---------6h7-------6h7---666h7----------6h7-------6h7---666h7-|
A|-7-7---7-----7---7-----7--------7-7---7-----7---7-----7-------|
D|--------------------------------------------------------------|
   . .   .     .   .     .        . .   .     .   .     .

E|--------------------------------------------------------|
B|--------------------------------------------------------|
G|-----2---------2------------------2---------2-----------|
D|----------2---------2------------------2---------2----2-|
A|-4-4----4----4----4---4-0h2h4-5-5----5----5----5----5---|
D|--------------------------------------------------------|
   . .    .    .    .           . .    .    .    .    .

E|---------------------------------------------------------|
B|---------------------------------------------------------|
G|-----4---------4-----------------------------------------|
D|---------6h7-------6h7---666h7------6---6-----6-66-6-6-6-|
A|-7-7---7-----7---7-----7--------7-7---7---7-7---77-7-7-7-|
D|---------------------------------------------------------|
   . .   .     .   .     .        . .   .   . . 

E|--------------------------------------------------------------------|
B|--------------------------------------------------------------------|
G|-----------------------------------------------------------------14-|
D|-7--7-7---9--9-9----------0-0-0-0-0-0-0--0-0---------0-0-0-0-0-0----|
A|-7--7-7---9--9-9---4h5p4--0-0-0-0-0-0-0--0-0-5h7-4h5-0-0-0-0-0-0-12-|
E|-7--7-7---9--9-9----------0-0-0-0-0-0-0--0-0---------0-0-0-0-0-0--0-|
                              . . .   .    . .           . . .   .

E|----------------------------------------------------------|
B|----------------------------------------------------------|
G|-99999999999977777666666141414141414131313131316161616/18-|
D|-77777777777700000000000----------------------------------|
A|-777777777777-----------121212121212111111111114141414/16-|
D|-77777777777799999999999-0-0-0-0-0-0----------------------|

E|------------------------------------------------------------------|
B|------------------------------------------------------------------|
G|-99999999999977777666666141414141414------------------------------|
D|-77777777777700000000000---------------------------------00-0-0-0-|
A|-777777777777-----------121212121212-----4h5/7----0h2/4--00-0-0-0-|
D|-77777777777799999999999-0-0-0-0-0-0-0-0--------0--------00-0-0-0-|
                                       . .        .        .. . . .

--------------------
Outro:
--------------------

Guitar 1
E|---------------------------------------------------------------------------------|
B|---------------------------------------------------------------------------------|
G|---------------------------------------------------------------------------------|
D|-7-7---7-7---9-9---12-12---12-12---11111111-7-7---7-7---9-9---12-12---12-12---11-|
A|-7-7---7-7---9-9---12-12---12-12---12121212-7-7---7-7---9-9---12-12---12-12---12-|
E|-7-7---7-7---9-9---12-12---12-12---11111111-7-7---7-7---9-9---12-12---12-12---11-|

E|-----------------------------------------------------------------|
B|-----------------------------------------------------------------|
G|-------7-6-7-----9-7-6-7-----6h7-----2/4---4-----6/7---7-----6---|
D|-----9---------------------------------------------------------7-|
A|-7-7---------7-7---------9-9-----0-0-----0---0-0-----0---0-0-----|
D|-7-7---------7-7---------9-9-----0-0-----0---0-0-----0---0-0-----|
   . .         . .         . .     . .     .   . .     .   . .

E|-----------------------------------|
B|-----------------------------------|
G|-------7-6-7-----9-7-6-7-----6h7---|
D|-----9---------------------------7-|
A|-7-7---------7-7---------9-9-----0-|
D|-7-7---------7-7---------9-9-----0-|
   . .         . .         . .


Alternate Ending (Acoustic Version)
E|-----------------------------------------------------------------|
B|-----------------------------------------------------------------|
G|-------7-6-7-6---9-7-6-7-6---6h7-----2/4---4/6---6/7---7/6---6---|
D|-----9---------7-----------9-----0-0-----0-----0-----0-----0---7-|
A|-7-7-------------------------------------------------------------|
D|-7-7-------------------------------------------------------------|
   . .

E|-----------------------------------|
B|-----------------------------------|
G|-------7-6-7-6---9-7-6-7-6---6h7---|
D|-----9---------7-----------9-----7-|
A|-7-7-----------------------------0-|
D|-7-7-----------------------------0-|
   . .


Guitar 2
E|---------------------------------------------------------|
B|---------------------------------------------------------|
G|---------------------------------------------------------|
D|-7-7---7-7---9-9---0-0---0-0---0-0---7-7---7-7---9-9---0-|
A|-7-7---7-7---9-9---0-0---0-0---0-0---7-7---7-7---9-9---0-|
E|-7-7---7-7---9-9---0-0---0-0---0-0---7-7---7-7---9-9---0-|
Tap to rate this tab
# A B C D E F G H I J K L M N O P Q R S T U V W X Y Z