Song name
# A B C D E F G H I J K L M N O P Q R S T U V W X Y Z

Misc Unsigned Bands - Kritic Kill - Kills Me To See You Go tab

THIS IS MY FIRST TAB, SO YEA. I ONLY TRIED TO TAB GUITAR 1 as there is multiple guitars 
this song.

EMAIL ME FOR ANY QUESTIONS: elementriders101@aol.com

ENJOY.


KEY: *palm mute,  ^bend,  \pick slide

OKAY, SO THE INTRO IS PRETTY EASY, START WITH SONG, THEN AT THE END OF INTRO SLOW DOWN 
TO MATCH SONG.


eb|-----------------------------------------------------------|
Bb|-----------------------------------------------------------|
Gb|-----------------------------------------------------------| X7
Db|-----------------------------------------------------------|
Ab|--3--5--6--6--5--3--3--1-----5--3--------------------------|
Eb|--------------------------3--------------------------------|

THEN AT 00:46 DO,


eb|-----------------------------------------------------------|
Bb|-----------------------------------------------------------|
Gb|-----------------------------------------------------------|
Db|--*5-*5-*5-*7-*7-*7-*8-*8-*8-*10-*10-*10-*12-*12-*12-------|
Ab|--*3-*3-*3-*5-*5-*5-*6-*6-*6-*8--*8--*8--*10-*10-*10-------|
Eb|-----------------------------------------------------------|


eb|-----------------------------------------------------------|
Bb|-----------------------------------------------------------|
Gb|-----------------------------------------------------------|
Db|-*10-*10-*10-*8-*8-*8-*7-*7-*7-*5-*5-*5--------------------|
Ab|-*8--*8--*8--*6-*6-*6-*5-*5-*5-*3-*3-*3--------------------|
Eb|-----------------------------------------------------------|


THEN JUST TAKE OFF PALM MUTE DURING THE VESRE.


eb|-----------------------------------------------------------|
Bb|-----------------------------------------------------------|
Gb|-----------------------------------------------------------|
Db|--5-5-5-7-7-7-8-8-8-10-10-10-12-12-12----------------------|
Ab|--3-3-3-5-5-5-6-6-6-8--8--8--10-10-10----------------------|
Eb|-----------------------------------------------------------|


eb|-----------------------------------------------------------|
Bb|-----------------------------------------------------------|
Gb|-----------------------------------------------------------|
Db|-10-10-10-8-8-8-7-7-7-5-5-5--------------------------------|
Ab|-8--8--8--6-6-6-5-5-5-3-3-3--------------------------------|
Eb|-----------------------------------------------------------|


NOW  FIND WHERE IN THE SONG YOU PLAY, BUT THATS ALL I TABBED< WORKING ON MORE!!
Tap to rate this tab
# A B C D E F G H I J K L M N O P Q R S T U V W X Y Z