Song name
# A B C D E F G H I J K L M N O P Q R S T U V W X Y Z

Misc Unsigned Bands - Randolph Permejo Cathy Nguyen - Goodbye tab

-------------------------------------------------------------------------------
			     Goodbye - Randolph Permejo and Cathy Nguyen
-------------------------------------------------------------------------------
Tabbed by: Me, duhhh. ;P


Tuning: EADGBe Capo 8th fret

Intro:
e|---------------------------------------------------------------------------|
B|---------0---------------0-----------------7-----8-----8-8---7-------------|
G|-----0-----0---0-----0-----0---0-------0-----0-----0-------0---0-----------|
D|-------2-----2---------4-----4-----------5-----5-----5---------------------|
A|---3---------------5----------------7--------------------------------------|
E|---------------------------------------------------------------------------|

e|---------------------------------------------------------------------------|
B|---------0---------------0-----------------0-----0-----0-0---0-------------|
G|-----0-----0---0-----0-----0---0-------0-----0-----0-------0---0-----------|
D|-------2-----2---------4-----4-----------5-----5-----5---------------------|
A|---3---------------5----------------7--------------------------------------|
E|---------------------------------------------------------------------------|

For verse one, keep repeating the first half of the intro.


Then look out for these two riffs. They pretty much just alternate:

e|---3--------2--------3--------3-------|
B|---3--------3--------3--------3-------|
G|---0--------2--------0--------0-------|
D|---0--------0--------2--------2-------|
A|---2-----------------3--------3-------|
E|---3----------------------------------|

e|---0--------0--------0--------0-------|
B|---0--------0--------0--------7-------|
G|---0--------0--------0--------0-------|
D|---2-------/4--------5--------5-------|
A|---3-------/5--------7--------7-------|
E|--(0)------(0)------(0)------(0)------|


| /  slide up
| \  slide down
| h  hammer-on
| p  pull-off
| ~  vibrato
| +  harmonic
| x  Mute note
===============================================================================
Tap to rate this tab
 
# A B C D E F G H I J K L M N O P Q R S T U V W X Y Z