Song name
# A B C D E F G H I J K L M N O P Q R S T U V W X Y Z

Misc Unsigned Bands - Autonomy - Are You Lost On These Roads tab

Tabbed by: Gavin Montgomery

Tuning: EADGBe
myspace : www.myspace.com/autonomydundee

quite a simple song but pretty good lyrics are easy to hear despite the boys poor singing

intro-
e|--------------------------------------------------------------------------|
B|--------------------------------------------------------------------------|
G|--------------------------------------------------------------------------|
D|----4---------------------------------------------------------------------|
A|----4---------------------------------------------------------------------|
E|----2--mute strings and strum x4------------------------------------------|

verse-
e|--------------------------------------------------------------------------|
B|--------------------------------------------------------------------------|
G|--------------------------------------------------------------------------|
D|----4------7-----6--------------------------------------------------------|
A|----4------7-----6--------------------------------------------------------|
E|----2------5-----4--------------------------------------------------------|

chorus-
e|--------------------------------------------------------------------------|
B|--------------------------------------------------------------------------|
G|--------------------------------------------------------------------------|
D|----12---14---16---------12----14----9------------------------------------|
A|----12---14---16---------12----14----9------------------------------------|
E|----10---12---14---------10----12----7------------------------------------|

middle-
e|---------------------------------------------------------------------------|
B|---------------------------------------------------------------------------|
G|---------------------------------------------------------------------------|
D|-----4---12---7---11-------------------------------------------------------|
A|-----4---12---7---11-------------------------------------------------------|
E|-----2---10---5---9--------------------------------------------------------|


intro sequence 4 times
verse sequence 5 times
verse sequence 4 times
chorus sequence 1 time
intro sequence 4 times
verse sequence 4 times
chorus sequence 2 times
middle sequence 4 times
verse sequence 4 times
chorus sequence 4 times
verse sequence 4 times

end
Tap to rate this tab
# A B C D E F G H I J K L M N O P Q R S T U V W X Y Z