Song name
# A B C D E F G H I J K L M N O P Q R S T U V W X Y Z

Misc Unsigned Bands - Icarus Flightplan - Burgendeligh tab

Help us improve GuitareTab! Take a short survey!
This song is called Burgendelight by the Icarus flight plan. if you havent heard of them 
em up at http://www.myspace.com/theicarusflightplanhk if you haven't already any way 
is their song.

So tonight I couldn't sleep I had you guys playing on face book, and  I had my guitar in 
of me.. do u get the picture?

KEY
P= pull of
*= natural harmonic
H= Hammer on
()= unnecessary note

Intro
E---12*-----------------------7*------|
A------7*------12*-----------7*-------|
D--------12*--(12*)-7*------7*--------|
G-------------------12*---------------|
B-------------------------------------|
e-------------------------------------|

E---12*-----------------------7*-7*---|
A------7*------12*-----------7*-------|
D--------12*--(12*)-7*------7*--------|
G-------------------12*---------------|
B-------------------------------------|
e-------------------------------------|

E---12*-----------------------7*-7*---|
A------7*------12*-----------7*-------|
D--------12*--(12*)-7*------7*--------|
G-------------------12*---------------|
B-------------------------------------|
e-------------------------------------|

Verse
E--12*---------15p12----------------15p12-----------------15p12---------------15-|
A----12*--12*--------13p12-12*--12*-------13p12--12*--12*------13p12-12*--12*----|
D------12*-------------------12*-------------------12*-----------------12*----12-|
G--------------------------------------------------------------------------------|
B--------------------------------------------------------------------------------|
e--------------------------------------------------------------------------------|

E--12*---------15p12----------------15p12-----------------15p12---------------15-|
A----12*--12*--------13p12-12*--12*-------13p12--12*--12*------13p12-12*--12*----|
D------12*-------------------12*-------------------12*-----------------12*----12-|
G--------------------------------------------------------------------------------|
B--------------------------------------------------------------------------------|
e--------------------------------------------------------------------------------|


Second verse
E--------------------------------------------------------|
A--------------------------------------------------------|
D--------------------14-14-14-14-14-14-12-12-12-11-11-11-|
G--------3---------3-------------------------------------|
B----------------- --12-12-12-12-12-12-9--9--9--8---8--8-|
e-0-0-0-(0)-0-0-0-(0)------------------------------------|


E---------------------------------------------------------|
A---------------------------------------------------------|
D---------------------14-14-14-14-14-14-16-16-16-17-17-17-|
G--------3---------3--------------------------------------|
B------------------- -12-12-12-12-12-12-14-14-14-15-15-15-|
e-0-0-0-(0)-0-0-0-(0)-------------------------------------|


Second verse
E--------------------------------------------------------|
A--------------------------------------------------------|
D--------------------14-14-14-14-14-14-12-12-12-11-11-11-|
G--------3---------3-------------------------------------|
B----------------- --12-12-12-12-12-12-9--9--9--8---8--8-|
e-0-0-0-(0)-0-0-0-(0)------------------------------------|


E---------------------------------------------------------|
A---------------------------------------------------------|
D---------------------14-14-14-14-14-14-16-16-16-17-17-17-|
G--------3---------3--------------------------------------|
B------------------- -12-12-12-12-12-12-14-14-14-15-15-15-|
e-0-0-0-(0)-0-0-0-(0)-------------------------------------|

E--------------------------------------------------------|
A--------------------------------------------------------|
D--------------------14-14-14-14-14-14-12-12-12-11-11-11-|
G--------3---------3-------------------------------------|
B----------------- --12-12-12-12-12-12-9--9--9--8---8--8-|
e-0-0-0-(0)-0-0-0-(0)------------------------------------|


E------------------------------------------------------------|
A------------------------------------------------------------|
D---------------------14-14-14-14-14-14-16-16-16-17-17-17-19-|
G--------3---------3-----------------------------------------|
B------------------- -12-12-12-12-12-12-14-14-14-15-15-15-17-|
e-0-0-0-(0)-0-0-0-(0)----------------------------------------|

Third verse
E-----------------------7*------|
A--------12*-----------7*-------|
D-------(12*)-7*------7*--------|
G--------------12*--------------|
B-------------------------------|
e-------------------------------|

E---12*-----------------------7*-7*---|
A------7*------12*-----------7*-------|
D--------12*--(12*)-7*------7*--------|
G-------------------12*---------------|
B-------------------------------------|
e-------------------------------------|


Fourth Verse
E--------------------------------------------------------|
A--------------------------------------------------------|
D--------------------14-14-14-14-14-14-12-12-12-11-11-11-|
G--------3---------3-------------------------------------|
B----------------- --12-12-12-12-12-12-9--9--9--8---8--8-|
e-0-0-0-(0)-0-0-0-(0)------------------------------------|


E---------------------------------------------------------|
A---------------------------------------------------------|
D---------------------14-14-14-14-14-14-16-16-16-17-17-17-|
G--------3---------3--------------------------------------|
B------------------- -12-12-12-12-12-12-14-14-14-15-15-15-|
e-0-0-0-(0)-0-0-0-(0)-------------------------------------|

E--------------------------------------------------------|
A--------------------------------------------------------|
D--------------------14-14-14-14-14-14-12-12-12-11-11-11-|
G--------3---------3-------------------------------------|
B----------------- --12-12-12-12-12-12-9--9--9--8---8--8-|
e-0-0-0-(0)-0-0-0-(0)------------------------------------|


E---------------------------------------------------------|
A---------------------------------------------------------|
D---------------------14-14-14-14-14-14-16-16-16-17-17-17-|
G--------3---------3--------------------------------------|
B------------------- -12-12-12-12-12-12-14-14-14-15-15-15-|
e-0-0-0-(0)-0-0-0-(0)-------------------------------------|

E--------------------------------------------------------|
A--------------------------------------------------------|
D--------------------14-14-14-14-14-14-12-12-12-11-11-11-|
G--------3---------3-------------------------------------|
B----------------- --12-12-12-12-12-12-9--9--9--8---8--8-|
e-0-0-0-(0)-0-0-0-(0)------------------------------------|


E---------------------------------------------------------|
A---------------------------------------------------------|
D---------------------14-14-14-14-14-14-16-16-16-17-17-17-|
G--------3---------3--------------------------------------|
B------------------- -12-12-12-12-12-12-14-14-14-15-15-15-|
e-0-0-0-(0)-0-0-0-(0)-------------------------------------|

E--------------------------------------------------------|
A--------------------------------------------------------|
D--------------------14-14-14-14-14-14-12-12-12-11-11-11-|
G--------3---------3-------------------------------------|
B----------------- --12-12-12-12-12-12-9--9--9--8---8--8-|
e-0-0-0-(0)-0-0-0-(0)------------------------------------|


E---------------------------------------------------------|
A---------------------------------------------------------|
D---------------------14-14-14-14-14-14-16-16-16-17-17-17-|
G--------3---------3--------------------------------------|
B------------------- -12-12-12-12-12-12-14-14-14-15-15-15-|
e-0-0-0-(0)-0-0-0-(0)-------------------------------------|

Fifth verse (outro)
E---------------------| This bit is muted or staccato but still harmonics
A--------12*----------|
D-------(12*)-7*------|
G--------------12*----|
B---------------------|
e---------------------|

E---12*-----------------------|
A------7*------12*------------|
D--------12*--(12*)-7*--------|
G-------------------12*-------|
B-----------------------------|
e-----------------------------|
Related for Icarus Flightplan - Burgendeligh tab