Song name
# A B C D E F G H I J K L M N O P Q R S T U V W X Y Z

Misc Unsigned Bands - Flying Monkeys - Joe Joeson tab

 Tuning: Drop D
 
 Intro
e|---------------------------------------------------------------------------|
B|---------------------------------------------------------------------------|
G|---------------------------------------------------------------------------|
D|---------------------------------------------------------------------------|
A|---------------------------------------------------------------------------|
D|-555-555--101010-101010--333-333--000-0------------------------------------|
   ... ...  . . .  . . .   ... ...  ... 
  Verse x4
e|---------------------------------------------------------------------------|
B|---------------------------------------------------------------------------|
G|---------------------------------------------------------------------------|
D|-5555-10101010-12121212-3333-5555-10101010-12121212-3----------------------|
A|-5555-10101010-12121212-3333-5555-10101010-12121212-3----------------------|
D|-5555-10101010-12121212-3333-5555-10101010-12121212-3----------------------|
  Pre-Chorus x1
e|---------------------------------------------------------------------------|
B|---------------------------------------------------------------------------|
G|-----7-----9-----10-12-----------------------------------------------------|
D|---------------------------------------------------------------------------|
A|-----5-----7-----8--10-----------------------------------------------------|
D|-0000--0000--0000----------------------------------------------------------|
   ....  ....  ....
  Chorus x6
e|---------------------------------------------------------------------------|
B|---------------------------------------------------------------------------|
G|---------------10101010-9999-----------------------------------------------|
D|-5555-10101010-------------------------------------------------------------|
A|-5555-10101010-8-8-8-8--7777-----------------------------------------------|
D|-5555-10101010-------------------------------------------------------------|

e|---------------------------------------------------------------------------|
B|---------------------------------------------------------------------------|
G|---------------10101010----------------------------------------------------|
D|-5555-10101010-------------------------------------------------------------|
A|-5555-10101010-8-8-8-8-----------------------------------------------------|
D|-5555-10101010-------------------------------------------------------------|
  Verse
  Chorus
  Interlude x2
e|---------------------------------------------------------------------------|
B|---------------------------------------------------------------------------|
G|---------------------------------------------------------------------------|
D|---------------------------------------------------------------------------|
A|-00-10h12-0000-10h12--00-10h12-0000----------------------------------------|
D|-00-10h12-0000-10h12--00-10h12-0000-12~------------------------------------|
   ..       ....        ..       ....
  Breakdown x1
e|---------------------------------------------------------------------------|
B|---------------------------------------------------------------------------|
G|---------------------------------------------------------------------------|
D|---------------------------------------------------------------------------|
A|-0-0-0-0-0-0-0-0-5-5-5-5-12------------------------------------------------|
D|-0-0-0-0-0-0-0-0-5-5-5-5-12------------------------------------------------|
   . . . . . . . . . . . .

Tap to rate this tab
# A B C D E F G H I J K L M N O P Q R S T U V W X Y Z