Song name
# A B C D E F G H I J K L M N O P Q R S T U V W X Y Z

Misc Unsigned Bands - Stone Senses - Broken Crown tab

----------------------------------------------------------------------------
			     Broken Crown - Stone Senses
----------------------------------------------------------------------------
Tabbed by:HandtoBiteon
Email:BradGPx@hotmail.com

Tuning: StAnDard

Intro:
e|-------------------------------------------------------------------------|
B|-------------------------------------------------------------------------|
G|------2-5---------------------------------------2------------------------|
D|-3--3------------2-5--------7-6-5-3------0-3--3---3--3-0-----------------|
A|------------3--3------5--5----------1--1-----------------0-0h1-1/3-3-----|
E|-------------------------------------------------------------------------|

e|-------------------------------------------------------------------------|
B|-------------------------------------------------------------------------|
G|-------------------------------------------------------------------------|
D|------3------------------------------------------------------------------|
A|-3/7---------------------------------------------------------------------|
E|-------------------------------------------------------------------------|

Verses:
e|-5-5---8--8---5-5---6-6----------------------------------------------------|
B|-6-6---8--8---6-6---6-6----------------------------------------------------|
G|-5-5---9--9---5-5---7-7----------------------------------------------------|
D|-7-7---10-10--7-7---8-8----------------------------------------------------|
A|---------------------------------------------------------------------------|
E|---------------------------------------------------------------------------|


| /  slide up
| \  slide down
| h  hammer-on
| p  pull-off
| ~  vibrato
| +  harmonic
| x  Mute note
=========================================================================
Tap to rate this tab
# A B C D E F G H I J K L M N O P Q R S T U V W X Y Z