Song name
# A B C D E F G H I J K L M N O P Q R S T U V W X Y Z

Misc Unsigned Bands - Switch - Rocky Top tab

        ROCKY TOP BY SWITCH
-----------------------------------------------------------------------

  0:00-0:20
E|-----------------------------------|
B|-----------------------------------|
G|-7-7-7-7-9-7-5-4-2-----------------|
D|-------------------5-55-7-5-7-5-9--|
A|-----------------------------------|
E|-----------------------------------|

E|---------------------------------|
B|---------------------------------|
G|-7-7-7-7-9-7-5-4-2---------------|
D|-------------------5-55-7-5-4-2--|
A|---------------------------------|
E|---------------------------------|

REPEAT ALL OF THE ABOVE TWICE
---------------------------------------------------------------------------

there's the intro


http://www.newgrounds.com/audio/listen/178131


 if u think there's something wronge plz send 2 turkey139@hotmail.com
Tap to rate this tab
# A B C D E F G H I J K L M N O P Q R S T U V W X Y Z