Song name
# A B C D E F G H I J K L M N O P Q R S T U V W X Y Z

Misc Unsigned Bands - Twigg - Hu Christie Piece Number V tab

-------------------------------------------------------------------------------
			     HU CHRISTIE PIECE - Twigg
-------------------------------------------------------------------------------
Tabbed by: Tuatara8081
Email: eddie8081@gmail.com

Tuning: Standard (EADGBE)

e|------------------------|----------------0------|----2---2---3---2--0------|
B|----0---0-------1------o|----3---3-------3-----o|----1---0---0----------3--|
G|----2---2-------0-------|----0---0-----0--------|--2---2---2---0---0--0---0|
D|--0---0---0---2---------|--0---0---0------------|0-----------2---0---------|
A|------------0----------o|2-----------3---------o|-------------------3---2--|
E|3-----------------------|-----------------------|--------------------------|
                         X2                       X2
e|------------------------------0--------------------------------------------|
B|1---0-------0---0-------0---0-----3---1-------0---1-------0---0-------0---0|
G|--0---0----2---2------2---1-----2---0---0---2---2---2-----2---2-------2---2|
D|---------0----------2---------------------0-------------0---0---0---0---0--|
A|0-----------------------------0---2---3------------------------------------|
E|----3--1----------0-----------------------------------3-----------3--------|

e|---------------------------------------------------------------------------|
B|---------------------------------------------------------------------------|
G|---------------------------------------------------------------------------|
D|0--------------------------------------------------------------------------|
A|---------------------------------------------------------------------------|
E|--3------------------------------------------------------------------------|

===============================================================================

| /  slide up
| \  slide down
| h  hammer-on
| p  pull-off
| ~  vibrato
| +  harmonic
| x  Mute note
===============================================================================
Tap to rate this tab
# A B C D E F G H I J K L M N O P Q R S T U V W X Y Z