Song name
# A B C D E F G H I J K L M N O P Q R S T U V W X Y Z

Misc Unsigned Bands - Result Of Hesitation - Stuck In A Mistake tab

Ok guys, GTR 1 has a capo on the first fret and GTR 2 is normal


      P.M-------------------------------------------------------|
GTR 1- E--------------------------------------------------------|
       B--------------------------------------------------------|
       G--------------------------------------------------------|
       D-8-x-x-8-x-x-8-x-x-8-x-x-9-8-6--------------------------| X3
       A-8-x-x-8-x-x-8-x-x-8-x-x--------------------------------|
       E--------------------------------------------------------|

       P.M---------------------------------------------------|
       ------------------------------------------------------|
       ------------------------------------------------------|
       ------------------------------------------------------|
       8-x-x-8-x-x-8-x-x-8-x-x-9-8---------------------------|
       8-x-x-8-x-x-8-x-x-8-x-x-------------------------------|
       ------------------------------------------------------|
             /\ play this twice /\

       P.M----------------------------------------------------|
       -------------------------------------------------------|
       -------------------------------------------------------|
GTR 1  -------------------------------------------------------| X4
       9-8---9-8---9-8----8-8---------------------------------|
       ---9-8---9-8---9-8-8-8---------------------------------|
       -------------------------------------------------------|

       P.M---------------------------------------------------|
GTR 2- ------------------------------------------------------|
       ------------------------------------------------------|
       ------------------------------------------------------|
       8-8-8-8-8-8-8-8-8-8-8-8-------------------------------|
       8-8-8-8-8-8-8-8-8-8-8-8-------------------------------|
       ------------------------------------------------------|

Now for the verse

C     G       F#    Em    C
Eerie screams drift from nowhere
C      G        F#       Em            C
Find myself lost in this place you can mistake for death
C     G        F#    Em     C
Where the last shall be the first
C     G       F#     Em     C
And the first shall be the last
C     G       F#     Em       C
As Im swept off my feet by my illusions
C     G   F#   Em    C
Falling head over heels

CHORUS
B         A            F#        B
Im stuck in a mistake, life's in stake
B            A            F#                 B
Hung out on a short leash, and I'm reaching out to you
B                 A           F#                B
But you leave me out to dry, and scar me with this good bye
B            A       F#            B
Im trapped in a lie, and stuck in a mistake!

C G  F#  Em  C
Hurtin' all over
C   G     F#      Em      C
I'm lost in these stranger's arms
C    G      F#     Em      C
And baby some wounds just never heal
C    G  F#    Em      C
This pain it all feels so real
C    G   F#       Em        C
But i pray its all just a nightmare


repeat chorus


Now time can only pass by

I sit and watch the angels fly

Count your blessings, ready to die!?

SOLO- GTR 1

T15                 T14                 T12
-------------------------------------------------------|
-------------------------------------------------------|
7-10-7-10-7-10-7-10-7-10-7-10-7-10-7-10-7-10-7-10-7-10-|  play twice
-------------------------------------------------------|
-------------------------------------------------------|
-------------------------------------------------------|

turn on wah wah

------------------------------------------------------|
------------------------------------------------------|
10bbbb/16b--------14------14--------------------------| repeat 5 times
------------h14h16--h14h16----------------------------|
------------------------------------------------------|
------------------------------------------------------|

------------------------------------------------------|
------------------------------------------------------|
14--17--14--17--14---17-------------------------------| play 5 times
--15------15-------15---------------------------------|
------------------------------------------------------|
------------------------------------------------------|

------------------------------------------------------|
--------16b-------------------------------------------|
-16bb---1bb-------------------------------------------|
------------------------------------------------------|
------------------------------------------------------|
------------------------------------------------------|

wah wah goes off, overdrive turns on

-19bbbbbb-17h19p17|--17-----21-17h19| play-| 10 times
------------------|----17h19---------------|
-------------------------------------------|
-------------------------------------------|
-------------------------------------------|
-------------------------------------------|

-19bbbbbb-19b-17----19b-17---19-17--19-17---19-17---17-21--17-21---|
-----------------19b------19b-----19------19-----19------21-----21-|
-------------------------------------------------------------------|
-------------------------------------------------------------------|
-------------------------------------------------------------------|
-------------------------------------------------------------------|

17-21---17-21---17-22--17-22---17-22--17-22-----------------------|
-----21------21------22------22-----22----22----------------------|
------------------------------------------------------------------|
------------------------------------------------------------------|
------------------------------------------------------------------|
------------------------------------------------------------------|

21-19-17----------------------------------------------------------|
--------19-17-----------------------------------------------------|
-------------19-17-15p14h15---------------------------------------|
----------------------------17-15-14/12---------------------------|
---------------------------------------15-13-12-10-8h10p8h10p8----|
------------------------------------------------------------------|

let feedback come in, then tear in gtr 1 playing intro, then after 2 plays of main intro 
band comes in, goes to verse 3

C    G    F#    Em      C
Prisoner of this deadly place
C    G    F#     Em      C
Me and the devil face to face
C    G    F#    Em       C
Im living on my last prayers
C   G  F#    Em      C
Holding on for dear life
C  G  F#  Em   C
Begging for mercy!

Chorus

outro

----------------------------------------------|
----------------------------------------------|
----------------------------------------------|
---8b-6-6-----8b-6-6-----8b-6/4/2/1-1---------|  repeat 5 times then fade
8-6-------8-6------8--8-6-----------2---------|
----------------------------------------------|


alrite, there ya go!

some tips!
1. When playing the verse, only hit the bottom 3 strings (E,A,D)
2. In the verse, when you play the C, hammer the D-3 and A-2 into the G,A-2
and E-3
3. When playing the chorus, lift your fingers after every rapid hit to get that muted sound
Tap to rate this tab
# A B C D E F G H I J K L M N O P Q R S T U V W X Y Z