Song name
# A B C D E F G H I J K L M N O P Q R S T U V W X Y Z

Misc Unsigned Bands - Calixa Lavallee - O Canada tab

Song: O Canada
Tabbed by: Trevor Wyatt
Email: trevor_wyatt69@hotmail.com

e------------------0-----------0-1-1-0-0---------------------------0---------|
B--0-3-3-----0-1-3-----0-2-2-3-----------3---0-1-0---0-1-3-1-0-1-3---3-1-0---|
G--------0-2---------2---------------------2-------2-----------------------2-|
D----------------------------------------------------------------------------|
A----------------------------------------------------------------------------|
E----------------------------------------------------------------------------|

e--------------------------------------------------0-0---------0-------------|
B----0-1-0---0-1-3-1-0-0---3-3-2-0-2-3-0-3-3---1-1-------3-4-4---1-0-------0-|
G--2-------2-------------2-------------------0---------2-------------2-0-2---|
D----------------------------------------------------------------------------|
A----------------------------------------------------------------------------|
E----------------------------------------------------------------------------|

e----3-3-0---------2-3-------|
B--3-------1-0---3-----------|
G--------------2-------------|
D----------------------------|
A----------------------------|
E----------------------------|
Tap to rate this tab
# A B C D E F G H I J K L M N O P Q R S T U V W X Y Z