Song name
# A B C D E F G H I J K L M N O P Q R S T U V W X Y Z

Misc Unsigned Bands - Kim Jong Wook - Only You tab

Kim Jong Wook- Only you

Aight so its my first tab but screw it cuz i think its right, so what the hell here it 
Oh and Ps. great song.

e|--------------------7/9\7--9h11h12-11p9-7------------7/9\7----------------|
B|---7/9\7----------------------------------9---9p7-------------7h9---------|
G|---------9h8p9--8-9-------------------------------9---------9-------------|
D|--------------------------------------------------------------------------|
A|--------------------------------------------------------------------------|
E|--------------------------------------------------------------------------|

e|------------------------7/9\7----12/14-12\11-12----12p11-9-9\7------------|
B|-------------------------------------------------------------------7-9----|
G|-------9h11-9\8---8h9--------------------------------------------9--------|
D|---9h11---------9---------------------------------------------------------|
A|--------------------------------------------------------------------------|
E|--------------------------------------------------------------------------|

e|----------------------------|
B|----------------------------|
G|-------9h11-9\8---8h9-------|
D|---9h11---------9-----------|
A|----------------------------|
E|----------------------------|

if it sucks just email me at hasteetheday92@yahoo.com
i know it wont but just sayin if it does
Tap to rate this tab
 
# A B C D E F G H I J K L M N O P Q R S T U V W X Y Z