Song name
# A B C D E F G H I J K L M N O P Q R S T U V W X Y Z

Misc Unsigned Bands - Corby The Black People - Pc Stwab tab

-------------------------------------------------------------------------------
			   PC STWAB - Corby & The Black People
-------------------------------------------------------------------------------
Tabbed by: JayDizzle


Tuning: EADGBe

Intro - Repeat Twice
e|------------------------|
B|------------------------|
G|------------------------|
D|22222222-5555-7777------|
A|22222222-5555-7777------|
E|00000000-3333-5555------|
  ******** **** ****
Listen to song for timings.

Verse - Repeat Eight Times
e|-------------------|
B|-------------------|
G|-------------------|
D|22222222-5555-7777-|
A|22222222-5555-7777-|
E|00000000-3333-5555-|

Chorus 
e|---------------------------------------------------------------|
B|---------------------------------------------------------------|
G|---------------------------------------------------------------|
D|77-55-99-77777-77-55-99-77777-77-55-99-7777--------------------|
A|77-55-99-77777-77-55-99-77777-77-55-99-7777--------------------|
E|55-33-77-55555-55-33-77-55555-55-33-77-5555--------------------|

Outro
e|0000-00-00----------|
B|0000-00-00----------|
G|0000-00-00----------|
D|2222-55-77----------|
A|2222-55-77----------|
E|0000-33-55----------|

Thats it.

Order Is:
Intro 
Verse x8
Chorus 
Verse x8
Chorus
Kind of goes a bit nuts at the end.


Corby & The Black People ROCK!!!


www.myspace.com/corbytheblackpeople
Tap to rate this tab
 
# A B C D E F G H I J K L M N O P Q R S T U V W X Y Z