Song name
# A B C D E F G H I J K L M N O P Q R S T U V W X Y Z

Misc Unsigned Bands - Beeftone - 7-11 tab

e---------------------------|
B---------------------------|
G---------------------------|
D---------------------------|
A-0-0-35---0-0-35---0-0-35--|
E---------------------------|
Palm Muted
X2
e---------|
B---------|
G---------|
D---------|
A-00355---|
E---------|
GO!
e---------------------------------|
B---------------------------------|
G---------------------------------|
D-2-2-5/7---2-2-5/7---2-2-55/77---|
A-0-0-3/5---0-0-3/5---0-0-33/55---|
E---------------------------------|
X4
It's 11:07 at the 711 GO!
e---------------------------------|
B---------------------------------|
G---------------------------------|
D-2-2-5/7---2-2-5/7---2-2-55/77---|
A-0-0-3/5---0-0-3/5---0-0-33/55---|
E---------------------------------|
And I sit down on the curb just to sip my slurpee SLOW!
e---------------------------------|
B---------------------------------|
G---------------------------------|
D-2-2-5/7---2-2-5/7---2-2-55/77---|
A-0-0-3/5---0-0-3/5---0-0-33/55---|
E---------------------------------|
My slurpee was warm and my hot wing was cold WOAH!
e---------------------------------|
B---------------------------------|
G---------------------------------|
D-2-2-5/7---2-2-5/7---2-2-55/77---|
A-0-0-3/5---0-0-3/5---0-0-33/55---|
E---------------------------------|
Then I reached into the fridge but the milk had mold!
e---------------------------------|
B---------------------------------|
G---------------------------------|
D-2-2-5/7---2-2-5/7---2-2-55/77---|
A-0-0-3/5---0-0-3/5---0-0-33/55---|
E---------------------------------|

e-----------------------------------|
B-----------------------------------|
G-----------------------------------|
D-7-7-7-7-7-7-7-7--5-5-5-5-5--------|
A-5-5-5-5-5-5-5-5--3-3-3-3-3--------|
E-----------------------------------|
OOOOOOOOOOOOOOOOOOOOOH! AT THE 711!!!
e------------------------------|
B------------------------------|
G------------------------------|
D------------------------------|
A-0-0-35---0-0-35---0-0-35555--|
E------------------------------|
X4
STOP!..........711 is open 24 hours a day!
e---------------------------------|
B---------------------------------|
G---------------------------------|
D-2-2-5/7---2-2-5/7---2-2-55/77---|
A-0-0-3/5---0-0-3/5---0-0-33/55---|
E---------------------------------|
The guy behind the counter, well he told me i forgot to pay!
e---------------------------------|
B---------------------------------|
G---------------------------------|
D-2-2-5/7---2-2-5/7---2-2-55/77---|
A-0-0-3/5---0-0-3/5---0-0-33/55---|
E---------------------------------|
There's a panda in the corner starin at me think he wants to play!
e---------------------------------|
B---------------------------------|
G---------------------------------|
D-2-2-5/7---2-2-5/7---2-2-55/77---|
A-0-0-3/5---0-0-3/5---0-0-33/55---|
E---------------------------------|
Well I say that I don't want to so I'm not gunna stay
e---------------------------------|
B---------------------------------|
G---------------------------------|
D-2-2-5/7---2-2-5/7---2-2-55/77---|
A-0-0-3/5---0-0-3/5---0-0-33/55---|
E---------------------------------|

e-----------------------------------|
B-----------------------------------|
G-----------------------------------|
D-7-7-7-7-7-7-7-7--5-5-5-5-5--------|
A-5-5-5-5-5-5-5-5--3-3-3-3-3--------|
E-----------------------------------|
OOOOOOOOOOOOOOOOOOOOOH! AT THE 711!!!
e------------------------------|
B------------------------------|
G------------------------------|
D------------------------------|
A-0-0-35---0-0-35---0-0-35555--|
E------------------------------|
STOP!.......... BREAKDOWN!!!
Tristan makes up the solo everytime live and the recorded one is too hard to tab..... 
thats the end of the song
Tap to rate this tab
# A B C D E F G H I J K L M N O P Q R S T U V W X Y Z