Song name
# A B C D E F G H I J K L M N O P Q R S T U V W X Y Z

Misc Unsigned Bands - Delicious Prophet - Mountain Dew tab

I way wrote this.

verse  guitar 1
|-------------------------------------------------|
|--1-------1--------------------------------------|
|------0-----0---0---0-------------------0--------|
|----2---2-----2---2---2-------------------2------|
|--3-----------------------3-0---------------3-0--|
|-------------------------------3----------------3|  x4
       guitar 2
|--0--------------------------------------------|
|--1--------------------------------1-----------|
|--0-----------0-----0-----0--0-------0---------|
|--2-------------2-----2--------2-----------0h2-|
|--3---------------3-----3--------3---------0h3-|
|-----------------------------------------------|    x4


im too lazy to tab the chorus.
http://www.youtube.com/watch?v=my-T_AvGxas

Tap to rate this tab
# A B C D E F G H I J K L M N O P Q R S T U V W X Y Z