Song name
# A B C D E F G H I J K L M N O P Q R S T U V W X Y Z

Misc Unsigned Bands - Cutt-throat - Behind The Curtain tab

Artist: Cutt-Throat
Song: The Calm Before The Storm
Album: Behind The Curtain (2009)
Composer: C. Adams
Tuning: Drop C

It's This Riff Throughout The Whole Song
|---------------------------------|
|---------------------------------|
|---------------------------------|
|-2-2-2-2-2-2-2-2-4-4-3-3-2-2-3-3-|
|-2-2-2-2-2-2-2-2-4-4-3-3-2-2-3-3-|
|-2-2-2-2-2-2-2-2-4-4-3-3-2-2-3-3-|

=========================

Artist: Cutt-Throat
Song: Dawning Of Our Time
Album: Behind The Curtain (2009)
Composer: C. Adams
Tuning: Drop C

Intro
|---------------|
|---------------|
|---------------|
|-7--7*--7------|
|-7--7*--7--7*--|
|-7------7--7*--|

Main Riff
|-----------------------|
|-----------------------|
|-----------------------|
|-0--7*--0------2-3-----|
|-0--7*--0--7*------4-2-|
|-0------0--7*----------|

Verse
|-------------------|
|---3~--------------|
|--2---------2~-----|
|-0---------3-------|
|----------4--------|
|-------------------|

Pre Chorus Palm-Muted
|---------------------------------|
|---------------------------------|
|---------------------------------|
|-5-5-5-5-7-7-7-7-5-5-5-5-4-4-4-4-|
|-5-5-5-5-7-7-7-7-5-5-5-5-4-4-4-4-|
|-3-3-0-3-5-5-5-5-3-3-0-3-2-2-0-2-|

Chorus
|-----------------------------------------------------------------|
|-3-3-3-3-3-3-3-3-------------------------------------------------|
|-2-2-2-2-2-2-2-2-2-2-2-2-2-2-2-2-7-7-7-7-7-7-7-7-9-9-9-9-9-9-9-9-|
|-0-0-0-0-0-0-0-0-3-3-3-3-3-3-3-3-x-x-x-x-x-x-x-x-x-x-x-x-x-x-x-x-|
|-0-0-0-0-0-0-0-0-4-4-4-4-4-4-4-4-5-5-5-5-5-5-5-5-7-7-7-7-7-7-7-7-|
|-0-0-0-0-0-0-0-0-------------------------------------------------|

=========================

Artist: Cutt-Throat
Song: Inside
Album: Behind The Curtain (2009)
Composer: C. Adams
Tuning: Drop C

Main Riff
|-------------------------|-----------------------------------|
|-------------------------|-----------------------------------|
|-------------------------|-7-7-7-7-7-7-7-7-9-9-9-9-12-12-8-8-|
|-2--2-3-2--5-5-5/7\5-5\4-|-x-x-x-x-x-x-x-x-x-x-x-x--x--x-x-x-|
|-2--2-3-2--5-5-5/7\5-5\4-|-5-5-5-5-5-5-5-5-7-7-7-7-10-10-6-6-|
|-2--2-3-2--5-5-5/7\5-5\4-|-----------------------------------|

Pre Chorus
|-----------------------------------------------------------------|
|-----------------------------------------------------------------|
|-----------------------------------------------------------------|
|-----------------------------------------------------------------|
|-----------------------------------------------------------------|
|-2-4-4-4-2-3-0-2-2-4-4-4-2-3-0-2-2-4-4-4-2-3-0-2-2-4-4-4-2-3-2-0-|

Chorus
|---------------------------------|
|---------------------------------|
|-7-7-7-7-7-7---------------------|
|-7-7-7-7-7-7-0-0-2-2-2-2-3-3-5-5-|
|-5-5-5-5-5-5-0-0-2-2-2-2-3-3-5-5-|
|-------------0-0-2-2-2-2-3-3-5-5-|

=========================

Artist: Cutt-Throat
Song: Facade
Album: Behind The Curtain (2009)
Composer: C. Adams
Tuning: Drop C

Intro/Verse
|-----------------------------------------------------------------|
|-----------------------------------------------------------------|
|-----------------------------------------------------------------|
|-2-2-2-2-3-3-3-3-0-0-0-0-1-1-1-1-2-2-2-2-3-3-3-3-5-5-5-5-7-7-7-7-|
|-2-2-2-2-3-3-3-3-0-0-0-0-1-1-1-1-2-2-2-2-3-3-3-3-5-5-5-5-7-7-7-7-|
|-0-0-0-0-3-3-3-3-0-0-0-0-1-1-1-1-0-0-0-0-3-3-3-3-5-5-5-5-7-7-7-7-|

=========================

Artist: Cutt-Throat
Song: Unwanted
Album: Behind The Curtain (2009)
Composer: C. Adams
Tuning: Drop C

Main Riff/Verse Palm-Muted
|------------------------------------------------------|
|------------------------------------------------------|
|------------------------------------------------------|
|------------------------------------------------------|
|------------------------------------------------------|
|-6666555533336666555533336666555533331010101066665555-

Pre Chorus
|---------------|
|---------------|
|---------------|
|-4-4--7-5~-----|
|-2-2--5-5~-----|
|-0-0--0-0~-----|

=========================

Artist: Cutt-Throat
Song: Die For Me
Album: Behind The Curtain (2009)
Composer: C. Adams
Tuning: Drop C

Chorus
|----------------------------|
|----------------------------|
|----------------------------|
|-0-0-0--1-1-1--0-0-0--2--2--|
|-0-0-0--1-1-1--0-0-0--2--2--|
|-0-0-0--1-1-1--0-0-0--0--0--|

Verse
|---------------------------------|
|---------------------------------|
|---------------------------------|
|-4-4-4-4-4-4-9-9-9-9-9-9-9-9-7-7-|
|-2-2-2-2-2-2-7-7-7-7-7-7-7-7-5-5-|
|-0-0-0-0-0-0-0-0-0-0-0-0-0-0-0-0-|

=========================

Artist: Cutt-Throat
Song: Your Shadow
Album: Behind The Curtain (2009)
Composer: C. Adams
Tuning: Drop C

Intro Clean
|-----------|
|-----------|
|-----------|
|-----2-2h3-|
|---2-------|
|-0---------|

Intro/Verse Distortion
|-----------|
|-----------|
|-----------|
|-0---2-2h3-|
|-0-2-------|
|-0---------|

Chorus
|-----------------------------------------------------------------|
|-4-4-4-4-4-4-4-4-7-7-7-7-7-7-7-7-9-9-9-9-9-9-9-9-5-5-5-5-5-5-5-5-|
|-x-x-x-x-x-x-x-x-x-x-x-x-x-x-x-x-x-x-x-x-x-x-x-x-x-x-x-x-x-x-x-x-|
|-2-2-2-2-2-2-2-2-5-5-5-5-5-5-5-5-7-7-7-7-7-7-7-7-3-3-3-3-3-3-3-3-|
|-0-0-0-0-0-0-0-0-0-0-0-0-0-0-0-0-0-0-0-0-0-0-0-0-0-0-0-0-0-0-0-0-|
|-----------------------------------------------------------------|

=========================

Artist: Cutt-Throat
Song: Hollow
Album: Behind The Curtain (2009)
Composer: C. Adams
Tuning: Drop C

Verse
|---------------------------------------------------------|
|---------------------------------------------------------|
|---------------------------------------------------------|
|-0h1-0h1---0h1h3-0h1-0h1---0h1h3-0h1-0h1---0h1h3-1-1-1-1-|
|-0h1-0h1---0h1h3-0h1-0h1---0h1h3-0h1-0h1---0h1h3-1-1-1-1-|
|-0h1-0h1---0h1h3-0h1-0h1---0h1h3-0h1-0h1---0h1h3-1-1-1-1-|

========================

Artist: Cutt-Throat
Song: First Person View
Album: Behind The Curtain (2009)
Composer: C. Adams
Tuning: Drop C

Verse Palm-Muted
|------------------------------------------------------------------|
|------------------------------------------------------------------|
|------------------------------------------------------------------|
|------------------------------------------------------------------|
|------------------------------------------------------------------|
|-0000000022332233000000002233223300000000223322331111111111111111-

Chorus
|-------------------------------------------------------------|
|-------------------------------------------------------------|
|-5-5--7-7--2222-5-5--7-7--2222-5-5--7-7--2222-5-5--7-7--2222-|
|-5-5--7-7--2222-5-5--7-7--2222-5-5--7-7--2222-5-5--7-7--2222-|
|-3-3--5-5--0000-3-3--5-5--0000-3-3--5-5--0000-3-3--5-5--0000-|
|-------------------------------------------------------------|

=========================

Artist: Cutt-Throat
Song: Fragile
Album: Behind The Curtain (2009)
Composer: C. Adams
Tuning: Drop C

_ Palm-Mute

Intro
|------------------------|
|------------------------|
|------------------------|
|-------------5h7--------|
|----------5h7---5h7-3h5-|
|-00000000---------------|
  ________

HOW CAN THIS BE!!!
|--------------------------------------------|
|--------------------------------------------|
|--------------------------------------------|
|-5----7--9--6-6-6-6-6-6-6-6-8-8-8-8-8-8-8-8-|
|-x----x--x--x-x-x-x-x-x-x-x-x-x-x-x-x-x-x-x-|
|-3--0-5--7--4-4-4-4-4-4-4-4-6-6-6-6-6-6-6-6-|
     _

=========================

Artist: Cutt-Throat
Song: The Enemy
Album: Behind The Curtain (2009)
Composer: C. Adams
Tuning: Drop C

Intro/Verse
|---------------------------------|
|---------------------------------|
|---------------------------------|
|-2~--------------------------2-2-|
|-2~--------------------------2-2-|
|-0-0-0-0-0-0-0-0-0-0-0-0-0-0-0-0-|
Tap to rate this tab
# A B C D E F G H I J K L M N O P Q R S T U V W X Y Z