Song name
# A B C D E F G H I J K L M N O P Q R S T U V W X Y Z

Misc Unsigned Bands - Cutt-throat - Fragile tab

Artist: Cutt-Throat
Song: Fragile
Album: Behind The Curtain (2009)
Composer: C. Adams
Tuning: Drop C

_ Palm-Mute

Intro
|------------------------|
|------------------------|
|------------------------|
|-------------5h7--------|
|----------5h7---5h7-3h5-|
|-00000000---------------|
  ________

HOW CAN THIS BE!!!
|--------------------------------------------|
|--------------------------------------------|
|--------------------------------------------|
|-5----7--9--6-6-6-6-6-6-6-6-8-8-8-8-8-8-8-8-|
|-x----x--x--x-x-x-x-x-x-x-x-x-x-x-x-x-x-x-x-|
|-3--0-5--7--4-4-4-4-4-4-4-4-6-6-6-6-6-6-6-6-|
     _
Tap to rate this tab
 
# A B C D E F G H I J K L M N O P Q R S T U V W X Y Z