Song name
# A B C D E F G H I J K L M N O P Q R S T U V W X Y Z

Misc Unsigned Bands - Cutt-throat - Your Shadow tab

Artist: Cutt-Throat
Song: Your Shadow
Album: Behind The Curtain (2009)
Composer: C. Adams
Tuning: Drop C

Intro Clean
|-----------|
|-----------|
|-----------|
|-----2-2h3-|
|---2-------|
|-0---------|

Intro/Verse Distortion
|-----------|
|-----------|
|-----------|
|-0---2-2h3-|
|-0-2-------|
|-0---------|

Chorus
|-----------------------------------------------------------------|
|-4-4-4-4-4-4-4-4-7-7-7-7-7-7-7-7-9-9-9-9-9-9-9-9-5-5-5-5-5-5-5-5-|
|-x-x-x-x-x-x-x-x-x-x-x-x-x-x-x-x-x-x-x-x-x-x-x-x-x-x-x-x-x-x-x-x-|
|-2-2-2-2-2-2-2-2-5-5-5-5-5-5-5-5-7-7-7-7-7-7-7-7-3-3-3-3-3-3-3-3-|
|-0-0-0-0-0-0-0-0-0-0-0-0-0-0-0-0-0-0-0-0-0-0-0-0-0-0-0-0-0-0-0-0-|
|-----------------------------------------------------------------|
Tap to rate this tab
 
# A B C D E F G H I J K L M N O P Q R S T U V W X Y Z