Song name
# A B C D E F G H I J K L M N O P Q R S T U V W X Y Z

Misc Unsigned Bands - Cutt-throat - Die For Me tab

Help us improve GuitareTab! Take a short survey!
Artist: Cutt-Throat
Song: Die For Me
Album: Behind The Curtain (2009)
Composer: C. Adams
Tuning: Drop C

Chorus
|----------------------------|
|----------------------------|
|----------------------------|
|-0-0-0--1-1-1--0-0-0--2--2--|
|-0-0-0--1-1-1--0-0-0--2--2--|
|-0-0-0--1-1-1--0-0-0--0--0--|

Verse
|---------------------------------|
|---------------------------------|
|---------------------------------|
|-4-4-4-4-4-4-9-9-9-9-9-9-9-9-7-7-|
|-2-2-2-2-2-2-7-7-7-7-7-7-7-7-5-5-|
|-0-0-0-0-0-0-0-0-0-0-0-0-0-0-0-0-|
Related for Cutt-throat - Die For Me tab