Song name
# A B C D E F G H I J K L M N O P Q R S T U V W X Y Z

Misc Unsigned Bands - Cutt-throat - Dawning Of Our Time tab

Artist: Cutt-Throat
Song: Dawning Of Our Time
Album: Behind The Curtain (2009)
Composer: C. Adams
Tuning: Drop C

Intro
|---------------|
|---------------|
|---------------|
|-7--7*--7------|
|-7--7*--7--7*--|
|-7------7--7*--|

Main Riff
|-----------------------|
|-----------------------|
|-----------------------|
|-0--7*--0------2-3-----|
|-0--7*--0--7*------4-2-|
|-0------0--7*----------|

Verse
|-------------------|
|---3~--------------|
|--2---------2~-----|
|-0---------3-------|
|----------4--------|
|-------------------|

Pre Chorus Palm-Muted
|---------------------------------|
|---------------------------------|
|---------------------------------|
|-5-5-5-5-7-7-7-7-5-5-5-5-4-4-4-4-|
|-5-5-5-5-7-7-7-7-5-5-5-5-4-4-4-4-|
|-3-3-0-3-5-5-5-5-3-3-0-3-2-2-0-2-|

Chorus
|-----------------------------------------------------------------|
|-3-3-3-3-3-3-3-3-------------------------------------------------|
|-2-2-2-2-2-2-2-2-2-2-2-2-2-2-2-2-7-7-7-7-7-7-7-7-9-9-9-9-9-9-9-9-|
|-0-0-0-0-0-0-0-0-3-3-3-3-3-3-3-3-x-x-x-x-x-x-x-x-x-x-x-x-x-x-x-x-|
|-0-0-0-0-0-0-0-0-4-4-4-4-4-4-4-4-5-5-5-5-5-5-5-5-7-7-7-7-7-7-7-7-|
|-0-0-0-0-0-0-0-0-------------------------------------------------|
Tap to rate this tab
 
# A B C D E F G H I J K L M N O P Q R S T U V W X Y Z