Song name
# A B C D E F G H I J K L M N O P Q R S T U V W X Y Z

Misc Unsigned Bands - Cutt-throat - Inside tab

Help us improve GuitareTab! Take a short survey!
Artist: Cutt-Throat
Song: Inside
Album: Behind The Curtain (2009)
Composer: C. Adams
Tuning: Drop C

Main Riff
|-------------------------|-----------------------------------|
|-------------------------|-----------------------------------|
|-------------------------|-7-7-7-7-7-7-7-7-9-9-9-9-12-12-8-8-|
|-2--2-3-2--5-5-5/7\5-5\4-|-x-x-x-x-x-x-x-x-x-x-x-x--x--x-x-x-|
|-2--2-3-2--5-5-5/7\5-5\4-|-5-5-5-5-5-5-5-5-7-7-7-7-10-10-6-6-|
|-2--2-3-2--5-5-5/7\5-5\4-|-----------------------------------|

Pre Chorus
|-----------------------------------------------------------------|
|-----------------------------------------------------------------|
|-----------------------------------------------------------------|
|-----------------------------------------------------------------|
|-----------------------------------------------------------------|
|-2-4-4-4-2-3-0-2-2-4-4-4-2-3-0-2-2-4-4-4-2-3-0-2-2-4-4-4-2-3-2-0-|

Chorus
|---------------------------------|
|---------------------------------|
|-7-7-7-7-7-7---------------------|
|-7-7-7-7-7-7-0-0-2-2-2-2-3-3-5-5-|
|-5-5-5-5-5-5-0-0-2-2-2-2-3-3-5-5-|
|-------------0-0-2-2-2-2-3-3-5-5-|
Related for Cutt-throat - Inside tab