Song name
# A B C D E F G H I J K L M N O P Q R S T U V W X Y Z

Misc Unsigned Bands - Jordan Mccoy - Next Ex Boyfriend chords

Highlighted       Show chord diagrams
Song of youtube star Jordan McCoy.
I own nothing. hope you like it.

Tuning: Standart

I check you out
e--------------------------------------- |
B--------------------------------------- |
G--------------------------------------- |
D--------------------------------------- |
A--------------------------------------- |
E--0-0-0-0-0-0-0-0-7-7-7-5-5-5-5-5------ |

Start to think about
e--------------------------------------- |
B--------------------------------------- |
G--------------------------------------- |
D--------------------------------------- |
A--------------------------------------- |
E--0-0-0-0-0-0-0-0-7-7-7-5-5-5-5-5------ |

The possibility that we could be
e--------------------------------------- |
B--------------------------------------- |
G--------------------------------------- |
D--------------------------------------- |
A--------------------------------------- |
E--0-0-0-0-0-0-0-0-7-7-7-5-5-5-5-5------ |

A little more than friends
e--------------------------------------- -----------------------|
B--------------------------------------- -----------------------|
G--------------------------------------- -----------------------|
D--------------------------------------- -----------------------|
A--------------------------------------- -----------------------|
E--0-0-0-0-0-0-0-0-7-7-7-5-------------- --------------| E B A
   
  A
So now I've met your mom E B A
A
And your brother too E B A
A
Their may be a problem with you best friend.. E B A
A
I think i like him more than you
A
Same old story

B
Getting boring

A B A
Oh no here we go E B A
You're about to be my NEXT EX BOYFRIEND E B A
my NEXT EX BOYFRIEND E B A

A
Oh, it's you again E B A
A
Calling on my phone (leave me alone) E B A
A
I know you wanna see me on the weekend.. E B A
A
but i'd rather be alone (now don't get me wrong) E B A
A
I think you're really sweet (you're really sweet) E B A
A
You're a good guy, a real good guy E B A
A
But somehow you're just not the one for me.. E


I wish I knew why!

A
It's the Same old story

B
Getting boring

Chorus

Fm A
How do I do it? 

Cmaj/E?* B
Over the phone

Fm A
How to explain it?

Cmaj/E?* B
We just don't belong

Fm A
I hate to say it B A
But you've gotta know E B A
You're about to be my NEXT EX BOYFRIEND E B A
my NEXT EX BOYFRIEND E B A
my NEXT EX BOYFRIEND E B A
my NEXT EX BOYFRIEND 

E
Tap to rate this tab
 
# A B C D E F G H I J K L M N O P Q R S T U V W X Y Z