Song name
# A B C D E F G H I J K L M N O P Q R S T U V W X Y Z

Misc Unsigned Bands - Jolly Intense - End Of Time chords

Highlighted       Show chord diagrams
G                     Em
Here we are, it's the end of time
E                 Em
Everyone here has lost their minds
C                                D
If you need someone, I'll be the one you can follow
C                                 D
The world is growing empty and is filling with sorrow
G                     Em
Come on now, it's the end of time
G                  Em
Nobody knows, this can't be right
C                         D
Days are darker, you need someone to listen
C                              D
But everyone's suffering from "lack of vision"
G                     Em
Here we are, it's the end of time
G                  Em
All that's left is yours and mine
C                           D
Can we still go on with our emotions fallen
C                               D
The world is burning, and we're left here crawling
G                     Em
Here we are, it's the end of time
G                Em
Now your soul is taking flight
C                          D
Do you really think you'll make it to heaven?
C                        D
Take a look around, it's all an illusion

SOLO THING
e|--3-3-3-3-3-3-3-3--8--8--8--8-10-10-10-10------|
B|--3-3-3-3-0-0-0-0--8--8--8--8--8--8--8--8------|
G|-----------------------------------------------| 
D|-----------------------------------------------|
A|-----------------------------------------------|
E|-----------------------------------------------|

e|--3-3-3-3-3-3-3-3--8--8--8--8-10-10-10-10--8--8--8--8-10-10-12-12-10-10-|
B|--3-3-3-3-0-0-0-0--8--8--8--8--8--8--8--8--8--8--8--8--8--8--8--8--8--8-|
G|------------------------------------------------------------------------| 
D|------------------------------------------------------------------------|
A|------------------------------------------------------------------------|
E|------------------------------------------------------------------------|

G (strum)             Em (strum)
Here we are, it's the end of time
G (strum)         Em (strum)
Everyone here has lost their minds
C (palm mute)                    D (palm mute)
If you need someone, I'll be the one you can follow
C (palm mute)                     D
The world is growing empty and is filling with sorrow

e|-------------------------------------|
B|-------------------------------------|
G|-------------------------------------| 
D|--5-5-5-5-5-5-5-5--2-2-2-2-2-2-2-2---| X2
A|--5-5-5-5-5-5-5-5--2-2-2-2-2-2-2-2---|
E|--3-3-3-3-3-3-3-3--0-0-0-0-0-0-0-0---|

e|-------------------------------------------------------------------|
B|-------------------------------------------------------------------|
G|--5-5-5-5-5-5-5-5--7-7-7-7-7-7-7-7--5-5-5-5-5-5-5-5--7-7-7-7-9-7---| 
D|--5-5-5-5-5-5-5-5--7-7-7-7-7-7-7-7--5-5-5-5-5-5-5-5--7-7-7-7-9-7---|
A|--3-3-3-3-3-3-3-3--5-5-5-5-5-5-5-5--3-3-3-3-3-3-3-3--5-5-5-5-7-5---|
E|-------------------------------------------------------------------|

G                     Em
Here we are, it's the end of time
G                     Em
Come on now, it's the end of time
G                      Em
Where do you go at the end of time?
G                       Em
Lose yourself, it's the end of time!

e|-------------------------------------|
B|-------------------------------------|
G|-------------------------------------| 
D|--5-5-5-5-5-5-5-5--2-2-2-2-2-2-2-2---| X2
A|--5-5-5-5-5-5-5-5--2-2-2-2-2-2-2-2---|
E|--3-3-3-3-3-3-3-3--0-0-0-0-0-0-0-0---|

e|-------------------------------------------------------------------|
B|-------------------------------------------------------------------|
G|--5-5-5-5-5-5-5-5--7-7-7-7-7-7-7-7--5-5-5-5-5-5-5-5--7-7-7-7-9-7---| 
D|--5-5-5-5-5-5-5-5--7-7-7-7-7-7-7-7--5-5-5-5-5-5-5-5--7-7-7-7-9-7---|
A|--3-3-3-3-3-3-3-3--5-5-5-5-5-5-5-5--3-3-3-3-3-3-3-3--5-5-5-5-7-5---|
E|-------------------------------------------------------------------|

end on G

e|-------------------------------------|
B|-------------------------------------|
G|-------------------------------------| 
D|--5----------------------------------| X2
A|--5-(let it ring---------------------|
E|--3----------------------------------|
Tap to rate this tab
# A B C D E F G H I J K L M N O P Q R S T U V W X Y Z