Song name
# A B C D E F G H I J K L M N O P Q R S T U V W X Y Z

Misc Unsigned Bands - Rafael Santiago - Air tab

Intro
E---------------------------------------------------------------------------|
B--3---3--1---1--1---1--1---1-----------------------------------------------|
G--0--0-0-0--0-0-0--0-0-0--0-0----------------------------------------------|
D--5-5----3-3----2-2----1-1-------------------------------------------------|
A---------------------------------------------------------------------------|
E---------------------------------------------------------------------------|
Riff 1
E---------------------------------------------------------------------------|
B---5---5---5---5---3---3---3---3---2---3---5---5-3-2-----------------------|
G--4---4---4---4---4---4---4---4---2---2---2---2----------------------------|
D-2---2---2---2---2---2---2---2---2---2---2---2-----------------------------|
A---------------------------------------------------------------------------|
E---------------------------------------------------------------------------|
Chorus 1
E---------------------------------------------------------------------------|
B-----12-----11-----9-----11-9----------------------------------------------|
G--11-11--11-11--11-9-9-11--------------------------------------------------|
D-9-----9------9------------------------------------------------------------|
A---------------------------------------------------------------------------|
E---------------------------------------------------------------------------|
Riff 2
E---------------------------------------------------------------------------|
B---8---8---8---8---6---6---6---6---5---6---8---8-6-5-----------------------|
G--7---7---7---7---7---7---7---7---5---5---5---5----------------------------|
D-5---5---5---5---5---5---5---5---5---5---5---5-----------------------------|
A---------------------------------------------------------------------------|
E---------------------------------------------------------------------------|
Bridge
E---------------------------------------------------------------------------|
B-7---6---4---2-------------------------------------------------------------|
G-6---6---4---2-------------------------------------------------------------|
D-7-7-6-6-4-4-2-------------------------------------------------------------|
A---------------------------------------------------------------------------|
E---------------------------------------------------------------------------|
Solo
E---------------------------------------------------------------------------|
B---------------------------------------------------------------------------|
G----------9-11-14~-14-13-12-14-13-12-11s7-0----------11-9-7--5-7-5---------|
D-9-11-9-11----------------------------------0-7-9-7-9-------7--5-3---------|
A---------------------------------------------------------------------------|
E---------------------------------------------------------------------------|

Well this is the first song of mine that ive posted,so hope you like it.
Tap to rate this tab
 
# A B C D E F G H I J K L M N O P Q R S T U V W X Y Z