Song name
# A B C D E F G H I J K L M N O P Q R S T U V W X Y Z

Misc Unsigned Bands - Jolly Intense - Fan Of The Leatherback tab

Intro + Verse

e|--------------x-x-x-x-x-x-x-------------x-x-x-x-x-x--| 
B|--------------x-x-x-x-x-x-x-------------x-x-x-x-x-x--| 
G|--4-4-7-7-0---x-x-x-x-x-x-x-4-4-7-7-9-9-x-x-x-x-x-x--|  
D|--4-4-7-7-0-7-x-x-x-x-x-x-x-4-4-7-7-9-9-x-x-x-x-x-x--| (2x)
A|--2-2-5-5-0-7-x-x-x-x-x-x-x-2-2-5-5-7-7-x-x-x-x-x-x--| 
E|----------0-5-x-x-x-x-x-x-x-------------x-x-x-x-x-x--|

Pre-Chorus

e|--------------------------------------| 
B|--------------------------------------| 
G|--4-4-4-4-4-4-4--2-2-2-2-2-2-2--------|  
D|--4-4-4-4-4-4-4--2-2-2-2-2-2-2--------| (2x)
A|--2-2-2-2-2-2-2--0-0-0-0-0-0-0--------| 
E|--------------------------------------|

Chorus

e|-------------------------------| 
B|-------------------------------| 
G|--4--7-------------------------|  
D|--4--7--7-7-7-9----------------| (2x)
A|--2--5--7-7-7-9----------------| 
E|--------5-5-5-7----------------|

Order:
Intro + Verse
Pre-Chorus
Chorus
Intro + Verse
Pre-Chorus
Chorus
Intro + Verse
Pre-Chorus
Chorus
Intro + Verse + Solos

Tap to rate this tab
# A B C D E F G H I J K L M N O P Q R S T U V W X Y Z