Song name
# A B C D E F G H I J K L M N O P Q R S T U V W X Y Z

Misc Unsigned Bands - Jolly Intense - Jolly Intense tab

Part 1.) Jolly Intense!

e|---------------------------|
B|---------------------------|
G|--9-9-7-9-9-7-9-7-4-4-4-4--|
D|--9-9-7-9-9-7-9-7-4-4-4-4--|
A|--7-7-5-7-7-5-7-5-2-2-2-2--|
E|---------------------------|

Part 1 is just this repeated over and over again


Part 2.) This Is True

e|------------------------------|
B|------------------------------|
G|--9-9-9-7-4-4-4--7-7-7-2-2-2--|
D|--9-9-9-7-4-4-4--7-7-7-2-2-2--|
A|--7-7-7-5-2-2-2--5-5-5-0-0-0--|
E|------------------------------|

Part 2 is just this repeated over and over again. until the end then the bass rings and 
guitar goes straight into part 3

Part 3.) Parasite

Intro
e|------------------------------|
B|------------------------------|
G|------------------------------|
D|------------------------------| (2x)
A|--2b-5b-4b--7b----------------|
E|------------------------------|

Verse + Chorus
e|------------------------------|
B|------------------------------|
G|--4-4-4-7-7-7-6-6-6-9-9-9-----| During the verse pound every chord.
D|--4-4-4-7-7-7-6-6-6-9-9-9-----| During the chorus strum the chords.
A|--2-2-2-5-5-5-4-4-4-7-7-7-----|
E|------------------------------|

Ending
e|------------------------------|
B|------------------------------|
G|--9----------------9-7-6-4----|
D|--9-(let it ring)--9-7-6-4----|
A|--7----------------7-5-4-2----|
E|------------------------------|
Tap to rate this tab
 
# A B C D E F G H I J K L M N O P Q R S T U V W X Y Z